  0
SECTION
  2
HEADER
  9
$ACADVER
  1
AC1015
  9
$ACADMAINTVER
 70
     6
  9
$DWGCODEPAGE
  3
ANSI_1254
  9
$INSBASE
 10
0.0
 20
0.0
 30
0.0
  9
$EXTMIN
 10
0.0
 20
0.0
 30
0.0
  9
$EXTMAX
 10
279.4
 20
215.9
 30
0.0
  9
$LIMMIN
 10
0.0
 20
0.0
  9
$LIMMAX
 10
279.4
 20
215.9
  9
$ORTHOMODE
 70
     0
  9
$REGENMODE
 70
     1
  9
$FILLMODE
 70
     1
  9
$QTEXTMODE
 70
     0
  9
$MIRRTEXT
 70
     1
  9
$LTSCALE
 40
1.0
  9
$ATTMODE
 70
     1
  9
$TEXTSIZE
 40
3.5
  9
$TRACEWID
 40
1.0
  9
$TEXTSTYLE
  7
Standard
  9
$CLAYER
  8
0
  9
$CELTYPE
  6
ByLayer
  9
$CECOLOR
 62
   256
  9
$CELTSCALE
 40
1.0
  9
$DISPSILH
 70
     0
  9
$DIMSCALE
 40
1.0
  9
$DIMASZ
 40
3.5
  9
$DIMEXO
 40
1.0
  9
$DIMDLI
 40
3.75
  9
$DIMRND
 40
0.0
  9
$DIMDLE
 40
0.0
  9
$DIMEXE
 40
1.0
  9
$DIMTP
 40
0.0
  9
$DIMTM
 40
0.0
  9
$DIMTXT
 40
3.5
  9
$DIMCEN
 40
2.5
  9
$DIMTSZ
 40
0.0
  9
$DIMTOL
 70
     0
  9
$DIMLIM
 70
     0
  9
$DIMTIH
 70
     1
  9
$DIMTOH
 70
     1
  9
$DIMSE1
 70
     0
  9
$DIMSE2
 70
     0
  9
$DIMTAD
 70
     1
  9
$DIMZIN
 70
     0
  9
$DIMBLK
  1

  9
$DIMASO
 70
     1
  9
$DIMSHO
 70
     1
  9
$DIMPOST
  1

  9
$DIMAPOST
  1

  9
$DIMALT
 70
     0
  9
$DIMALTD
 70
     3
  9
$DIMALTF
 40
0.0393700787
  9
$DIMLFAC
 40
1.0
  9
$DIMTOFL
 70
     1
  9
$DIMTVP
 40
0.0
  9
$DIMTIX
 70
     0
  9
$DIMSOXD
 70
     0
  9
$DIMSAH
 70
     0
  9
$DIMBLK1
  1

  9
$DIMBLK2
  1

  9
$DIMSTYLE
  2
ISO-25
  9
$DIMCLRD
 70
     0
  9
$DIMCLRE
 70
     0
  9
$DIMCLRT
 70
     0
  9
$DIMTFAC
 40
1.0
  9
$DIMGAP
 40
1.524
  9
$DIMJUST
 70
     0
  9
$DIMSD1
 70
     0
  9
$DIMSD2
 70
     0
  9
$DIMTOLJ
 70
     0
  9
$DIMTZIN
 70
     0
  9
$DIMALTZ
 70
     0
  9
$DIMALTTZ
 70
     0
  9
$DIMUPT
 70
     0
  9
$DIMDEC
 70
     2
  9
$DIMTDEC
 70
     2
  9
$DIMALTU
 70
     2
  9
$DIMALTTD
 70
     3
  9
$DIMTXSTY
  7
Standard
  9
$DIMAUNIT
 70
     0
  9
$DIMADEC
 70
     2
  9
$DIMALTRND
 40
0.0
  9
$DIMAZIN
 70
     0
  9
$DIMDSEP
 70
    44
  9
$DIMATFIT
 70
     3
  9
$DIMFRAC
 70
     0
  9
$DIMLDRBLK
  1

  9
$DIMLUNIT
 70
     2
  9
$DIMLWD
 70
    -2
  9
$DIMLWE
 70
    -2
  9
$DIMTMOVE
 70
     0
  9
$LUNITS
 70
     2
  9
$LUPREC
 70
     2
  9
$SKETCHINC
 40
1.0
  9
$FILLETRAD
 40
10.0
  9
$AUNITS
 70
     0
  9
$AUPREC
 70
     2
  9
$MENU
  1
.
  9
$ELEVATION
 40
0.0
  9
$PELEVATION
 40
0.0
  9
$THICKNESS
 40
0.0
  9
$LIMCHECK
 70
     0
  9
$CHAMFERA
 40
0.0
  9
$CHAMFERB
 40
0.0
  9
$CHAMFERC
 40
0.0
  9
$CHAMFERD
 40
0.0
  9
$SKPOLY
 70
     0
  9
$TDCREATE
 40
2459741.614458576
  9
$TDUCREATE
 40
2459741.489458576
  9
$TDUPDATE
 40
2459741.614458681
  9
$TDUUPDATE
 40
2459741.489458681
  9
$TDINDWG
 40
0.0000000116
  9
$TDUSRTIMER
 40
0.0000000116
  9
$USRTIMER
 70
     1
  9
$ANGBASE
 50
0.0
  9
$ANGDIR
 70
     0
  9
$PDMODE
 70
     0
  9
$PDSIZE
 40
-1.0
  9
$PLINEWID
 40
0.0
  9
$SPLFRAME
 70
     0
  9
$SPLINETYPE
 70
     6
  9
$SPLINESEGS
 70
     8
  9
$HANDSEED
  5
140
  9
$SURFTAB1
 70
     6
  9
$SURFTAB2
 70
     6
  9
$SURFTYPE
 70
     6
  9
$SURFU
 70
     6
  9
$SURFV
 70
     6
  9
$UCSBASE
  2

  9
$UCSNAME
  2

  9
$UCSORG
 10
0.0
 20
0.0
 30
0.0
  9
$UCSXDIR
 10
1.0
 20
0.0
 30
0.0
  9
$UCSYDIR
 10
0.0
 20
1.0
 30
0.0
  9
$UCSORTHOREF
  2

  9
$UCSORTHOVIEW
 70
     0
  9
$UCSORGTOP
 10
0.0
 20
0.0
 30
0.0
  9
$UCSORGBOTTOM
 10
0.0
 20
0.0
 30
0.0
  9
$UCSORGLEFT
 10
0.0
 20
0.0
 30
0.0
  9
$UCSORGRIGHT
 10
0.0
 20
0.0
 30
0.0
  9
$UCSORGFRONT
 10
0.0
 20
0.0
 30
0.0
  9
$UCSORGBACK
 10
0.0
 20
0.0
 30
0.0
  9
$PUCSBASE
  2

  9
$PUCSNAME
  2

  9
$PUCSORG
 10
0.0
 20
0.0
 30
0.0
  9
$PUCSXDIR
 10
1.0
 20
0.0
 30
0.0
  9
$PUCSYDIR
 10
0.0
 20
1.0
 30
0.0
  9
$PUCSORTHOREF
  2

  9
$PUCSORTHOVIEW
 70
     0
  9
$PUCSORGTOP
 10
0.0
 20
0.0
 30
0.0
  9
$PUCSORGBOTTOM
 10
0.0
 20
0.0
 30
0.0
  9
$PUCSORGLEFT
 10
0.0
 20
0.0
 30
0.0
  9
$PUCSORGRIGHT
 10
0.0
 20
0.0
 30
0.0
  9
$PUCSORGFRONT
 10
0.0
 20
0.0
 30
0.0
  9
$PUCSORGBACK
 10
0.0
 20
0.0
 30
0.0
  9
$USERI1
 70
     0
  9
$USERI2
 70
     0
  9
$USERI3
 70
     0
  9
$USERI4
 70
     0
  9
$USERI5
 70
     0
  9
$USERR1
 40
0.0
  9
$USERR2
 40
0.0
  9
$USERR3
 40
0.0
  9
$USERR4
 40
0.0
  9
$USERR5
 40
0.0
  9
$WORLDVIEW
 70
     1
  9
$SHADEDGE
 70
     3
  9
$SHADEDIF
 70
    70
  9
$TILEMODE
 70
     1
  9
$MAXACTVP
 70
    64
  9
$PINSBASE
 10
0.0
 20
0.0
 30
0.0
  9
$PLIMCHECK
 70
     0
  9
$PEXTMIN
 10
1.0000000000E+20
 20
1.0000000000E+20
 30
1.0000000000E+20
  9
$PEXTMAX
 10
-1.0000000000E+20
 20
-1.0000000000E+20
 30
-1.0000000000E+20
  9
$PLIMMIN
 10
0.0
 20
0.0
  9
$PLIMMAX
 10
420.0
 20
297.0
  9
$UNITMODE
 70
     0
  9
$VISRETAIN
 70
     1
  9
$PLINEGEN
 70
     0
  9
$PSLTSCALE
 70
     1
  9
$TREEDEPTH
 70
  3020
  9
$CMLSTYLE
  2
Standard
  9
$CMLJUST
 70
     0
  9
$CMLSCALE
 40
20.0
  9
$PROXYGRAPHICS
 70
     1
  9
$MEASUREMENT
 70
     1
  9
$CELWEIGHT
370
    -1
  9
$ENDCAPS
280
     0
  9
$JOINSTYLE
280
     0
  9
$LWDISPLAY
290
     1
  9
$INSUNITS
 70
     4
  9
$HYPERLINKBASE
  1

  9
$STYLESHEET
  1

  9
$XEDIT
290
     1
  9
$CEPSNTYPE
380
     0
  9
$PSTYLEMODE
290
     1
  9
$FINGERPRINTGUID
  2
{8934785a-b4c9-4606-b08a-28ecea7eaa5b}
  9
$VERSIONGUID
  2
{FAEB1C32-E019-11D5-929B-00C0DF256EC4}
  9
$EXTNAMES
290
     1
  9
$PSVPSCALE
 40
0.0
  9
$OLESTARTUP
290
     0
  0
ENDSEC
  0
SECTION
  2
CLASSES
  0
CLASS
  1
ACDBDICTIONARYWDFLT
  2
AcDbDictionaryWithDefault
  3
ObjectDBX Classes
 90
        0
280
     0
281
     0
  0
CLASS
  1
VISUALSTYLE
  2
AcDbVisualStyle
  3
ObjectDBX Classes
 90
     4095
280
     0
281
     0
  0
CLASS
  1
MATERIAL
  2
AcDbMaterial
  3
ObjectDBX Classes
 90
     1153
280
     0
281
     0
  0
CLASS
  1
SCALE
  2
AcDbScale
  3
ObjectDBX Classes
 90
     1153
280
     0
281
     0
  0
CLASS
  1
TABLESTYLE
  2
AcDbTableStyle
  3
ObjectDBX Classes
 90
     4095
280
     0
281
     0
  0
CLASS
  1
MLEADERSTYLE
  2
AcDbMLeaderStyle
  3
ACDB_MLEADERSTYLE_CLASS
 90
     4095
280
     0
281
     0
  0
CLASS
  1
SUN
  2
AcDbSun
  3
SCENEOE
 90
     1153
280
     0
281
     0
  0
CLASS
  1
ACDBPLACEHOLDER
  2
AcDbPlaceHolder
  3
ObjectDBX Classes
 90
        0
280
     0
281
     0
  0
CLASS
  1
LAYOUT
  2
AcDbLayout
  3
ObjectDBX Classes
 90
        0
280
     0
281
     0
  0
ENDSEC
  0
SECTION
  2
TABLES
  0
TABLE
  2
VPORT
  5
8
330
0
100
AcDbSymbolTable
 70
     1
  0
VPORT
  5
29
330
8
100
AcDbSymbolTableRecord
100
AcDbViewportTableRecord
  2
*Active
 70
     0
 10
0.0
 20
0.0
 11
1.0
 21
1.0
 12
139.7
 22
107.95
 13
0.0
 23
0.0
 14
10.0
 24
10.0
 15
10.0
 25
10.0
 16
0.0
 26
0.0
 36
1.0
 17
0.0
 27
0.0
 37
0.0
 40
215.9
 41
1.2941176471
 42
50.0
 43
0.0
 44
0.0
 50
0.0
 51
0.0
 71
     0
 72
  2000
 73
     1
 74
     3
 75
     0
 76
     0
 77
     0
 78
     0
281
     0
 65
     1
110
0.0
120
0.0
130
0.0
111
1.0
121
0.0
131
0.0
112
0.0
122
1.0
132
0.0
 79
     0
146
0.0
  0
ENDTAB
  0
TABLE
  2
LTYPE
  5
5
330
0
100
AcDbSymbolTable
 70
     6
  0
LTYPE
  5
14
330
5
100
AcDbSymbolTableRecord
100
AcDbLinetypeTableRecord
  2
ByBlock
 70
     0
  3

 72
    65
 73
     0
 40
0.0
  0
LTYPE
  5
15
330
5
100
AcDbSymbolTableRecord
100
AcDbLinetypeTableRecord
  2
ByLayer
 70
     0
  3

 72
    65
 73
     0
 40
0.0
  0
LTYPE
  5
16
330
5
100
AcDbSymbolTableRecord
100
AcDbLinetypeTableRecord
  2
Continuous
 70
     0
  3
Solid line
 72
    65
 73
     0
 40
0.0
  0
LTYPE
  5
6E
330
5
100
AcDbSymbolTableRecord
100
AcDbLinetypeTableRecord
  2
HIDDEN
 70
     0
  3
Hidden __ __ __ __ __ __ __ __ __ __ __ __ __ __
 72
    65
 73
     2
 40
1.905
 49
1.27
 74
     0
 49
-0.635
 74
     0
  0
LTYPE
  5
6F
330
5
100
AcDbSymbolTableRecord
100
AcDbLinetypeTableRecord
  2
PHANTOM
 70
     0
  3
Phantom ______  __  __  ______  __  __  ______
 72
    65
 73
     6
 40
12.7
 49
6.35
 74
     0
 49
-1.27
 74
     0
 49
1.27
 74
     0
 49
-1.27
 74
     0
 49
1.27
 74
     0
 49
-1.27
 74
     0
  0
LTYPE
  5
70
330
5
100
AcDbSymbolTableRecord
100
AcDbLinetypeTableRecord
  2
CENTER
 70
     0
  3
Center ____ _ ____ _ ____ _ ____ _ ____ _ ____
 72
    65
 73
     4
 40
10.16
 49
6.35
 74
     0
 49
-1.27
 74
     0
 49
1.27
 74
     0
 49
-1.27
 74
     0
  0
LTYPE
  5
71
330
5
100
AcDbSymbolTableRecord
100
AcDbLinetypeTableRecord
  2
CENTERX2
 70
     0
  3
Center (2x) ________  __  ________  __  _____
 72
    65
 73
     4
 40
20.32
 49
12.7
 74
     0
 49
-2.54
 74
     0
 49
2.54
 74
     0
 49
-2.54
 74
     0
  0
LTYPE
  5
72
330
5
100
AcDbSymbolTableRecord
100
AcDbLinetypeTableRecord
  2
DOT2
 70
     0
  3
Dot (.5x) ........................................
 72
    65
 73
     2
 40
0.635
 49
0.0
 74
     0
 49
-0.635
 74
     0
  0
ENDTAB
  0
TABLE
  2
LAYER
  5
2
330
0
100
AcDbSymbolTable
 70
    17
  0
LAYER
  5
10
330
2
100
AcDbSymbolTableRecord
100
AcDbLayerTableRecord
  2
0
 70
     0
 62
     7
  6
Continuous
370
    -3
390
F
  0
LAYER
  5
73
330
2
100
AcDbSymbolTableRecord
100
AcDbLayerTableRecord
  2
FORMAT
 70
     0
 62
     7
  6
Continuous
370
    -3
390
F
  0
LAYER
  5
74
330
2
100
AcDbSymbolTableRecord
100
AcDbLayerTableRecord
  2
YARDIMCI_GEOMETRI
 70
     0
 62
    -6
  6
Continuous
290
     0
370
    -3
390
F
  0
LAYER
  5
75
330
2
100
AcDbSymbolTableRecord
100
AcDbLayerTableRecord
  2
SAYFA_CERCEVESI
 70
     0
 62
     7
  6
Continuous
370
    25
390
F
  0
LAYER
  5
76
330
2
100
AcDbSymbolTableRecord
100
AcDbLayerTableRecord
  2
ANTET
 70
     0
 62
     7
  6
Continuous
370
    -3
390
F
  0
LAYER
  5
77
330
2
100
AcDbSymbolTableRecord
100
AcDbLayerTableRecord
  2
OLCU
 70
     0
 62
   150
  6
Continuous
370
    -3
390
F
  0
LAYER
  5
78
330
2
100
AcDbSymbolTableRecord
100
AcDbLayerTableRecord
  2
METIN
 70
     0
 62
    96
  6
Continuous
370
    -3
390
F
  0
LAYER
  5
79
330
2
100
AcDbSymbolTableRecord
100
AcDbLayerTableRecord
  2
BALON
 70
     0
 62
     5
  6
Continuous
370
    -3
390
F
  0
LAYER
  5
7A
330
2
100
AcDbSymbolTableRecord
100
AcDbLayerTableRecord
  2
VURGU
 70
     0
 62
     7
  6
Continuous
370
    -3
390
F
  0
LAYER
  5
7B
330
2
100
AcDbSymbolTableRecord
100
AcDbLayerTableRecord
  2
SILIK
 70
     0
 62
     7
  6
Continuous
370
    -3
390
F
  0
LAYER
  5
7C
330
2
100
AcDbSymbolTableRecord
100
AcDbLayerTableRecord
  2
MODEL
 70
     0
 62
     7
  6
Continuous
370
    -3
390
F
  0
LAYER
  5
7D
330
2
100
AcDbSymbolTableRecord
100
AcDbLayerTableRecord
  2
DETAYLANDıRMA
 70
     0
 62
   190
  6
Continuous
370
    -3
390
F
  0
LAYER
  5
7E
330
2
100
AcDbSymbolTableRecord
100
AcDbLayerTableRecord
  2
TOLERANS
 70
     0
 62
   230
  6
Continuous
370
    -3
390
F
  0
LAYER
  5
7F
330
2
100
AcDbSymbolTableRecord
100
AcDbLayerTableRecord
  2
MERKEZ_CIZGILERI
 70
     0
 62
    30
  6
Continuous
370
    -3
390
F
  0
LAYER
  5
80
330
2
100
AcDbSymbolTableRecord
100
AcDbLayerTableRecord
  2
KESIT-DETAY_CIZGILERI
 70
     0
 62
     7
  6
Continuous
370
    -3
390
F
  0
LAYER
  5
81
330
2
100
AcDbSymbolTableRecord
100
AcDbLayerTableRecord
  2
\U+041E\U+0421\U+0415\U+0412\U+042B\U+0415
 70
     0
 62
     7
  6
Continuous
370
    -3
390
F
  0
LAYER
  5
82
330
2
100
AcDbSymbolTableRecord
100
AcDbLayerTableRecord
  2
\U+0412\U+041E\U+0414\U+042F\U+041D\U+042B\U+0415_\U+0417\U+041D\U+0410\U+041A\U+0418
 70
     0
 62
    11
  6
Continuous
370
    -3
390
F
  0
ENDTAB
  0
TABLE
  2
STYLE
  5
3
330
0
100
AcDbSymbolTable
 70
     1
  0
STYLE
  5
11
330
3
100
AcDbSymbolTableRecord
100
AcDbTextStyleTableRecord
  2
Standard
 70
     0
 40
0.0
 41
1.0
 50
0.0
 71
     0
 42
3.5
  3
txt
  4

  0
ENDTAB
  0
TABLE
  2
VIEW
  5
6
330
0
100
AcDbSymbolTable
 70
     0
  0
ENDTAB
  0
TABLE
  2
UCS
  5
7
330
0
100
AcDbSymbolTable
 70
     0
  0
ENDTAB
  0
TABLE
  2
APPID
  5
9
330
0
100
AcDbSymbolTable
 70
     1
  0
APPID
  5
12
330
9
100
AcDbSymbolTableRecord
100
AcDbRegAppTableRecord
  2
ACAD
 70
     0
  0
ENDTAB
  0
TABLE
  2
DIMSTYLE
  5
A
330
0
100
AcDbSymbolTable
 70
     1
100
AcDbDimStyleTable
  0
DIMSTYLE
105
27
330
A
100
AcDbSymbolTableRecord
100
AcDbDimStyleTableRecord
  2
ISO-25
 70
     0
 41
2.5
 42
0.625
 43
3.75
 44
1.25
 73
     0
 74
     0
 77
     1
 78
     8
140
2.5
141
2.5
143
0.0393700787
147
0.625
171
     3
172
     1
178
     0
271
     2
272
     2
274
     3
278
    44
283
     0
284
     8
340
11
  0
ENDTAB
  0
TABLE
  2
BLOCK_RECORD
  5
1
330
0
100
AcDbSymbolTable
 70
     5
  0
BLOCK_RECORD
  5
1F
330
1
100
AcDbSymbolTableRecord
100
AcDbBlockTableRecord
  2
*Model_Space
340
22
  0
BLOCK_RECORD
  5
1B
330
1
100
AcDbSymbolTableRecord
100
AcDbBlockTableRecord
  2
*Paper_Space
340
1E
  0
BLOCK_RECORD
  5
23
330
1
100
AcDbSymbolTableRecord
100
AcDbBlockTableRecord
  2
*Paper_Space0
340
26
  0
BLOCK_RECORD
  5
C4
330
1
100
AcDbSymbolTableRecord
100
AcDbBlockTableRecord
  2
SW_CENTERMARKSYMBOL_0
340
0
102
{BLKREFS
331
CF
102
}
  0
BLOCK_RECORD
  5
EF
330
1
100
AcDbSymbolTableRecord
100
AcDbBlockTableRecord
  2
SW_CENTERMARKSYMBOL_1
340
0
102
{BLKREFS
331
FA
102
}
  0
BLOCK_RECORD
  5
FB
330
1
100
AcDbSymbolTableRecord
100
AcDbBlockTableRecord
  2
SW_CENTERMARKSYMBOL_2
340
0
102
{BLKREFS
331
106
102
}
  0
BLOCK_RECORD
  5
107
330
1
100
AcDbSymbolTableRecord
100
AcDbBlockTableRecord
  2
SW_CENTERMARKSYMBOL_3
340
0
102
{BLKREFS
331
112
102
}
  0
ENDTAB
  0
ENDSEC
  0
SECTION
  2
BLOCKS
  0
BLOCK
  5
20
330
1F
100
AcDbEntity
  8
0
100
AcDbBlockBegin
  2
*Model_Space
 70
     0
 10
0.0
 20
0.0
 30
0.0
  3
*Model_Space
  1

  0
ENDBLK
  5
21
330
1F
100
AcDbEntity
  8
0
100
AcDbBlockEnd
  0
BLOCK
  5
1C
330
1B
100
AcDbEntity
 67
     1
  8
0
100
AcDbBlockBegin
  2
*Paper_Space
 70
     0
 10
0.0
 20
0.0
 30
0.0
  3
*Paper_Space
  1

  0
ENDBLK
  5
1D
330
1B
100
AcDbEntity
 67
     1
  8
0
100
AcDbBlockEnd
  0
BLOCK
  5
24
330
23
100
AcDbEntity
  8
0
100
AcDbBlockBegin
  2
*Paper_Space0
 70
     0
 10
0.0
 20
0.0
 30
0.0
  3
*Paper_Space0
  1

  0
ENDBLK
  5
25
330
23
100
AcDbEntity
  8
0
100
AcDbBlockEnd
  0
BLOCK
  5
C5
330
C4
100
AcDbEntity
  8
0
100
AcDbBlockBegin
  2
SW_CENTERMARKSYMBOL_0
 70
     0
 10
0.0
 20
0.0
 30
0.0
  3
SW_CENTERMARKSYMBOL_0
  1

  0
LINE
  5
C7
330
C4
100
AcDbEntity
  8
FORMAT
 62
     0
100
AcDbLine
 10
0.0
 20
0.0
 30
0.0
 11
0.0
 21
2.5
 31
0.0
  0
LINE
  5
C8
330
C4
100
AcDbEntity
  8
FORMAT
 62
     0
100
AcDbLine
 10
0.0
 20
0.0
 30
0.0
 11
-2.5
 21
0.0
 31
0.0
  0
LINE
  5
C9
330
C4
100
AcDbEntity
  8
FORMAT
 62
     0
100
AcDbLine
 10
0.0
 20
0.0
 30
0.0
 11
0.0
 21
-2.5
 31
0.0
  0
LINE
  5
CA
330
C4
100
AcDbEntity
  8
FORMAT
 62
     0
100
AcDbLine
 10
0.0
 20
0.0
 30
0.0
 11
2.5
 21
0.0
 31
0.0
  0
LINE
  5
CB
330
C4
100
AcDbEntity
  8
FORMAT
 62
     0
100
AcDbLine
 10
0.0
 20
5.0
 30
0.0
 11
0.0
 21
28.2
 31
0.0
  0
LINE
  5
CC
330
C4
100
AcDbEntity
  8
FORMAT
 62
     0
100
AcDbLine
 10
-5.0
 20
0.0
 30
0.0
 11
-28.2
 21
0.0
 31
0.0
  0
LINE
  5
CD
330
C4
100
AcDbEntity
  8
FORMAT
 62
     0
100
AcDbLine
 10
0.0
 20
-5.0
 30
0.0
 11
0.0
 21
-28.2
 31
0.0
  0
LINE
  5
CE
330
C4
100
AcDbEntity
  8
FORMAT
 62
     0
100
AcDbLine
 10
5.0
 20
0.0
 30
0.0
 11
28.2
 21
0.0
 31
0.0
  0
ENDBLK
  5
C6
330
C4
100
AcDbEntity
  8
0
100
AcDbBlockEnd
  0
BLOCK
  5
F0
330
EF
100
AcDbEntity
  8
0
100
AcDbBlockBegin
  2
SW_CENTERMARKSYMBOL_1
 70
     0
 10
0.0
 20
0.0
 30
0.0
  3
SW_CENTERMARKSYMBOL_1
  1

  0
LINE
  5
F2
330
EF
100
AcDbEntity
  8
FORMAT
 62
     0
100
AcDbLine
 10
0.0
 20
0.0
 30
0.0
 11
0.0
 21
2.5
 31
0.0
  0
LINE
  5
F3
330
EF
100
AcDbEntity
  8
FORMAT
 62
     0
100
AcDbLine
 10
0.0
 20
0.0
 30
0.0
 11
-2.5
 21
0.0
 31
0.0
  0
LINE
  5
F4
330
EF
100
AcDbEntity
  8
FORMAT
 62
     0
100
AcDbLine
 10
0.0
 20
0.0
 30
0.0
 11
0.0
 21
-2.5
 31
0.0
  0
LINE
  5
F5
330
EF
100
AcDbEntity
  8
FORMAT
 62
     0
100
AcDbLine
 10
0.0
 20
0.0
 30
0.0
 11
2.5
 21
0.0
 31
0.0
  0
LINE
  5
F6
330
EF
100
AcDbEntity
  8
FORMAT
 62
     0
100
AcDbLine
 10
0.0
 20
5.0
 30
0.0
 11
0.0
 21
34.0
 31
0.0
  0
LINE
  5
F7
330
EF
100
AcDbEntity
  8
FORMAT
 62
     0
100
AcDbLine
 10
-5.0
 20
0.0
 30
0.0
 11
-34.0
 21
0.0
 31
0.0
  0
LINE
  5
F8
330
EF
100
AcDbEntity
  8
FORMAT
 62
     0
100
AcDbLine
 10
0.0
 20
-5.0
 30
0.0
 11
0.0
 21
-34.0
 31
0.0
  0
LINE
  5
F9
330
EF
100
AcDbEntity
  8
FORMAT
 62
     0
100
AcDbLine
 10
5.0
 20
0.0
 30
0.0
 11
34.0
 21
0.0
 31
0.0
  0
ENDBLK
  5
F1
330
EF
100
AcDbEntity
  8
0
100
AcDbBlockEnd
  0
BLOCK
  5
FC
330
FB
100
AcDbEntity
  8
0
100
AcDbBlockBegin
  2
SW_CENTERMARKSYMBOL_2
 70
     0
 10
0.0
 20
0.0
 30
0.0
  3
SW_CENTERMARKSYMBOL_2
  1

  0
LINE
  5
FE
330
FB
100
AcDbEntity
  8
FORMAT
 62
     0
100
AcDbLine
 10
0.0
 20
0.0
 30
0.0
 11
0.0
 21
2.5
 31
0.0
  0
LINE
  5
FF
330
FB
100
AcDbEntity
  8
FORMAT
 62
     0
100
AcDbLine
 10
0.0
 20
0.0
 30
0.0
 11
-2.5
 21
0.0
 31
0.0
  0
LINE
  5
100
330
FB
100
AcDbEntity
  8
FORMAT
 62
     0
100
AcDbLine
 10
0.0
 20
0.0
 30
0.0
 11
0.0
 21
-2.5
 31
0.0
  0
LINE
  5
101
330
FB
100
AcDbEntity
  8
FORMAT
 62
     0
100
AcDbLine
 10
0.0
 20
0.0
 30
0.0
 11
2.5
 21
0.0
 31
0.0
  0
LINE
  5
102
330
FB
100
AcDbEntity
  8
FORMAT
 62
     0
100
AcDbLine
 10
0.0
 20
5.0
 30
0.0
 11
0.0
 21
9.5
 31
0.0
  0
LINE
  5
103
330
FB
100
AcDbEntity
  8
FORMAT
 62
     0
100
AcDbLine
 10
-5.0
 20
0.0
 30
0.0
 11
-9.5
 21
0.0
 31
0.0
  0
LINE
  5
104
330
FB
100
AcDbEntity
  8
FORMAT
 62
     0
100
AcDbLine
 10
0.0
 20
-5.0
 30
0.0
 11
0.0
 21
-9.5
 31
0.0
  0
LINE
  5
105
330
FB
100
AcDbEntity
  8
FORMAT
 62
     0
100
AcDbLine
 10
5.0
 20
0.0
 30
0.0
 11
9.5
 21
0.0
 31
0.0
  0
ENDBLK
  5
FD
330
FB
100
AcDbEntity
  8
0
100
AcDbBlockEnd
  0
BLOCK
  5
108
330
107
100
AcDbEntity
  8
0
100
AcDbBlockBegin
  2
SW_CENTERMARKSYMBOL_3
 70
     0
 10
0.0
 20
0.0
 30
0.0
  3
SW_CENTERMARKSYMBOL_3
  1

  0
LINE
  5
10A
330
107
100
AcDbEntity
  8
FORMAT
 62
     0
100
AcDbLine
 10
0.0
 20
0.0
 30
0.0
 11
0.0
 21
2.5
 31
0.0
  0
LINE
  5
10B
330
107
100
AcDbEntity
  8
FORMAT
 62
     0
100
AcDbLine
 10
0.0
 20
0.0
 30
0.0
 11
-2.5
 21
0.0
 31
0.0
  0
LINE
  5
10C
330
107
100
AcDbEntity
  8
FORMAT
 62
     0
100
AcDbLine
 10
0.0
 20
0.0
 30
0.0
 11
0.0
 21
-2.5
 31
0.0
  0
LINE
  5
10D
330
107
100
AcDbEntity
  8
FORMAT
 62
     0
100
AcDbLine
 10
0.0
 20
0.0
 30
0.0
 11
2.5
 21
0.0
 31
0.0
  0
LINE
  5
10E
330
107
100
AcDbEntity
  8
FORMAT
 62
     0
100
AcDbLine
 10
0.0
 20
5.0
 30
0.0
 11
0.0
 21
9.5
 31
0.0
  0
LINE
  5
10F
330
107
100
AcDbEntity
  8
FORMAT
 62
     0
100
AcDbLine
 10
-5.0
 20
0.0
 30
0.0
 11
-9.5
 21
0.0
 31
0.0
  0
LINE
  5
110
330
107
100
AcDbEntity
  8
FORMAT
 62
     0
100
AcDbLine
 10
0.0
 20
-5.0
 30
0.0
 11
0.0
 21
-9.5
 31
0.0
  0
LINE
  5
111
330
107
100
AcDbEntity
  8
FORMAT
 62
     0
100
AcDbLine
 10
5.0
 20
0.0
 30
0.0
 11
9.5
 21
0.0
 31
0.0
  0
ENDBLK
  5
109
330
107
100
AcDbEntity
  8
0
100
AcDbBlockEnd
  0
ENDSEC
  0
SECTION
  2
ENTITIES
  0
LINE
  5
83
330
1F
100
AcDbEntity
  8
0
  6
Continuous
 62
     7
370
    25
100
AcDbLine
 10
171.1807140607
 20
13.2384285714
 30
0.0
 11
211.1807140607
 21
13.2384285714
 31
0.0
  0
LINE
  5
84
330
1F
100
AcDbEntity
  8
0
  6
Continuous
 62
     7
370
    25
100
AcDbLine
 10
71.1807140607
 20
13.2384285714
 30
0.0
 11
111.1807140607
 21
13.2384285714
 31
0.0
  0
LINE
  5
85
330
1F
100
AcDbEntity
  8
0
  6
Continuous
 62
     7
370
    25
100
AcDbLine
 10
74.2018624718
 20
137.2384285714
 30
0.0
 11
71.1807140607
 21
137.2384285714
 31
0.0
  0
LINE
  5
86
330
1F
100
AcDbEntity
  8
0
  6
Continuous
 62
     7
370
    25
100
AcDbLine
 10
109.706017842
 20
137.2384285714
 30
0.0
 11
88.1807140607
 21
137.2384285714
 31
0.0
  0
LINE
  5
87
330
1F
100
AcDbEntity
  8
0
  6
Continuous
 62
     7
370
    25
100
AcDbLine
 10
194.1807140607
 20
137.2384285714
 30
0.0
 11
172.6566642607
 21
137.2384285714
 31
0.0
  0
LINE
  5
88
330
1F
100
AcDbEntity
  8
0
  6
Continuous
 62
     7
370
    25
100
AcDbLine
 10
211.1807140607
 20
137.2384285714
 30
0.0
 11
208.1595656497
 21
137.2384285714
 31
0.0
  0
LINE
  5
89
330
1F
100
AcDbEntity
  8
0
  6
Continuous
 62
     7
370
    25
100
AcDbLine
 10
109.6807140607
 20
205.2384285714
 30
0.0
 11
109.6807140607
 21
137.2255284801
 31
0.0
  0
LINE
  5
8A
330
1F
100
AcDbEntity
  8
0
  6
Continuous
 62
     7
370
    25
100
AcDbLine
 10
172.6807140607
 20
137.2261937029
 30
0.0
 11
172.6807140607
 21
205.2384285714
 31
0.0
  0
LINE
  5
8B
330
1F
100
AcDbEntity
  8
0
  6
Continuous
 62
     7
370
    25
100
AcDbLine
 10
88.1807140607
 20
137.2384285714
 30
0.0
 11
88.1807140607
 21
152.2384285714
 31
0.0
  0
LINE
  5
8C
330
1F
100
AcDbEntity
  8
0
  6
Continuous
 62
     7
370
    25
100
AcDbLine
 10
74.1807140607
 20
152.2384285714
 30
0.0
 11
74.1807140607
 21
137.2360482634
 31
0.0
  0
LINE
  5
8D
330
1F
100
AcDbEntity
  8
0
  6
Continuous
 62
     7
370
    25
100
AcDbLine
 10
208.1807140607
 20
137.2360482634
 30
0.0
 11
208.1807140607
 21
152.2384285714
 31
0.0
  0
LINE
  5
8E
330
1F
100
AcDbEntity
  8
0
  6
Continuous
 62
     7
370
    25
100
AcDbLine
 10
194.1807140607
 20
152.2384285714
 30
0.0
 11
194.1807140607
 21
137.2384285714
 31
0.0
  0
LINE
  5
8F
330
1F
100
AcDbEntity
  8
0
  6
Continuous
 62
     7
370
    25
100
AcDbLine
 10
211.1807140607
 20
77.2384285714
 30
0.0
 11
71.1807140607
 21
77.2384285714
 31
0.0
  0
LINE
  5
90
330
1F
100
AcDbEntity
  8
0
  6
Continuous
 62
     7
370
    25
100
AcDbLine
 10
71.1807140607
 20
84.2384285714
 30
0.0
 11
71.1807140607
 21
77.2384285714
 31
0.0
  0
LINE
  5
91
330
1F
100
AcDbEntity
  8
0
  6
Continuous
 62
     7
370
    25
100
AcDbLine
 10
211.1807140607
 20
84.2384285714
 30
0.0
 11
71.1807140607
 21
84.2384285714
 31
0.0
  0
LINE
  5
92
330
1F
100
AcDbEntity
  8
0
  6
Continuous
 62
     7
370
    25
100
AcDbLine
 10
211.1807140607
 20
84.2384285714
 30
0.0
 11
211.1807140607
 21
77.2384285714
 31
0.0
  0
LINE
  5
93
330
1F
100
AcDbEntity
  8
0
  6
Continuous
 62
     7
370
    25
100
AcDbLine
 10
71.1807140607
 20
73.2384285714
 30
0.0
 11
71.1807140607
 21
66.2384285714
 31
0.0
  0
LINE
  5
94
330
1F
100
AcDbEntity
  8
0
  6
Continuous
 62
     7
370
    25
100
AcDbLine
 10
211.1807140607
 20
73.2384285714
 30
0.0
 11
71.1807140607
 21
73.2384285714
 31
0.0
  0
LINE
  5
95
330
1F
100
AcDbEntity
  8
0
  6
Continuous
 62
     7
370
    25
100
AcDbLine
 10
211.1807140607
 20
73.2384285714
 30
0.0
 11
211.1807140607
 21
66.2384285714
 31
0.0
  0
LINE
  5
96
330
1F
100
AcDbEntity
  8
0
  6
Continuous
 62
     7
370
    25
100
AcDbLine
 10
211.1807140607
 20
66.2384285714
 30
0.0
 11
71.1807140607
 21
66.2384285714
 31
0.0
  0
SPLINE
  5
97
330
1F
100
AcDbEntity
  8
0
  6
Continuous
 62
     7
370
    25
100
AcDbSpline
210
0.0
220
0.0
230
1.0
 70
     8
 71
     3
 72
    26
 73
    22
 74
     0
 42
0.00000001
 43
0.00000001
 40
0.0
 40
0.0
 40
0.0
 40
0.0
 40
0.0526960293194616
 40
0.1069261577738099
 40
0.159620509845921
 40
0.2138316374991834
 40
0.2667338849629484
 40
0.3211615515449456
 40
0.3741979743412318
 40
0.4287849627735889
 40
0.4815919296251918
 40
0.5359446590735523
 40
0.588516333562455
 40
0.6426064104423954
 40
0.6953039244738571
 40
0.7495128534725687
 40
0.8025004035952301
 40
0.8570232074488796
 40
0.9100141405947579
 40
0.9645581875437107
 40
1.0
 40
1.0
 40
1.0
 40
1.0
 10
194.1807140607425
 20
137.2384285714285
 30
0.0
 10
194.1992787077788
 20
137.2363185485032
 30
0.0
 10
194.2369484601996
 20
137.2320370751716
 30
0.0
 10
194.5399189036849
 20
137.1984962384172
 30
0.0
 10
195.0189695578967
 20
137.1485549987052
 30
0.0
 10
195.6703899526464
 20
137.0865098519474
 30
0.0
 10
196.4835854126655
 20
137.0187456750517
 30
0.0
 10
197.4240814068316
 20
136.9537251084573
 30
0.0
 10
198.4816351294377
 20
136.8978564622658
 30
0.0
 10
199.6062463516993
 20
136.8584948062187
 30
0.0
 10
200.784918102975
 20
136.8394859599672
 30
0.0
 10
201.9607571914613
 20
136.8432067093051
 30
0.0
 10
203.1230509597216
 20
136.869142373056
 30
0.0
 10
204.2191295245642
 20
136.9138444543315
 30
0.0
 10
205.2396944200556
 20
136.9730757529128
 30
0.0
 10
206.1397990541458
 20
137.0394129433294
 30
0.0
 10
206.9084842337941
 20
137.1064351376091
 30
0.0
 10
207.5120014910397
 20
137.1658138925299
 30
0.0
 10
207.9328935812901
 20
137.210643818626
 30
0.0
 10
208.1592913892104
 20
137.2360013531402
 30
0.0
 10
208.1594881525032
 20
137.2360336269244
 30
0.0
 10
208.1595656496541
 20
137.2360463382706
 30
0.0
  0
SPLINE
  5
98
330
1F
100
AcDbEntity
  8
0
  6
Continuous
 62
     7
370
    25
100
AcDbSpline
210
0.0
220
0.0
230
1.0
 70
     8
 71
     3
 72
    27
 73
    23
 74
     0
 42
0.00000001
 43
0.00000001
 40
0.0
 40
0.0
 40
0.0
 40
0.0
 40
0.0480460069428894
 40
0.0960935056204813
 40
0.1456828020417023
 40
0.1952760372578131
 40
0.243275159070899
 40
0.2912777494844148
 40
0.3404678864984474
 40
0.3896604683101866
 40
0.4417609046691907
 40
0.4938621093329599
 40
0.5472806785079397
 40
0.6006976885984772
 40
0.6562366091862788
 40
0.7117716036333371
 40
0.7691805462629495
 40
0.8265841658979168
 40
0.8779956881904566
 40
0.9294047069475527
 40
0.9826207455749753
 40
1.0
 40
1.0
 40
1.0
 40
1.0
 10
141.1807140607425
 20
128.6402075680125
 30
0.0
 10
140.3737075285273
 20
128.6509373967933
 30
0.0
 10
138.7596694081197
 20
128.6723973874951
 30
0.0
 10
136.3319786038384
 20
128.8429163498368
 30
0.0
 10
133.9174782819209
 20
129.1141920715858
 30
0.0
 10
131.5604416441552
 20
129.4839133136625
 30
0.0
 10
129.2994941467379
 20
129.932092444379
 30
0.0
 10
127.1249686658099
 20
130.4460384371188
 30
0.0
 10
125.0250092907465
 20
131.0189072239772
 30
0.0
 10
122.9708250451135
 20
131.6487979653983
 30
0.0
 10
120.9955415181413
 20
132.3180911814653
 30
0.0
 10
119.0994055021538
 20
133.017129718367
 30
0.0
 10
117.3334031922896
 20
133.7160852668254
 30
0.0
 10
115.6890881113019
 20
134.4068931968602
 30
0.0
 10
114.2003357357608
 20
135.0644607717061
 30
0.0
 10
112.8711249616747
 20
135.6767834029309
 30
0.0
 10
111.7430568412754
 20
136.2141972023609
 30
0.0
 10
110.8685000398082
 20
136.6424272966272
 30
0.0
 10
110.2405844345386
 20
136.955267629857
 30
0.0
 10
109.8507863547276
 20
137.1520862711692
 30
0.0
 10
109.6708429598885
 20
137.2433305894602
 30
0.0
 10
109.6990690909836
 20
137.2290436274177
 30
0.0
 10
109.7060178419913
 20
137.2255264418156
 30
0.0
  0
SPLINE
  5
99
330
1F
100
AcDbEntity
  8
0
  6
Continuous
 62
     7
370
    25
100
AcDbSpline
210
0.0
220
0.0
230
1.0
 70
     8
 71
     3
 72
    26
 73
    22
 74
     0
 42
0.00000001
 43
0.00000001
 40
0.0
 40
0.0
 40
0.0
 40
0.0
 40
0.0342241999341764
 40
0.0858255446379732
 40
0.1324199812224663
 40
0.1790162145401897
 40
0.2268628086460356
 40
0.2747119760286793
 40
0.3233335872415971
 40
0.3719576656787359
 40
0.4217442985096302
 40
0.4715325630156737
 40
0.5250918951903207
 40
0.5786511847838656
 40
0.6336573711243161
 40
0.6886604628763662
 40
0.7438737293752484
 40
0.7990811482523795
 40
0.8563135877260827
 40
0.9135391188877989
 40
1.0
 40
1.0
 40
1.0
 40
1.0
 10
172.6566642606988
 20
137.226192027991
 30
0.0
 10
172.656941147664
 20
137.2263058014685
 30
0.0
 10
172.6576355093914
 20
137.226591116266
 30
0.0
 10
172.4234554082523
 20
137.1079364899023
 30
0.0
 10
172.0080744337441
 20
136.8988583180806
 30
0.0
 10
171.4280992663354
 20
136.6106391791326
 30
0.0
 10
170.6770436176296
 20
136.2433189061919
 30
0.0
 10
169.7511290398977
 20
135.8004628293186
 30
0.0
 10
168.6609908697018
 20
135.2929758112212
 30
0.0
 10
167.4032149788253
 20
134.7270283479969
 30
0.0
 10
165.9867628651424
 20
134.1151750504885
 30
0.0
 10
164.3774440110475
 20
133.4538209412551
 30
0.0
 10
162.5813145952376
 20
132.7596085048591
 30
0.0
 10
160.5785365156392
 20
132.0429006659439
 30
0.0
 10
158.4162988802795
 20
131.3392406620893
 30
0.0
 10
156.0986964982258
 20
130.6688096400254
 30
0.0
 10
153.6548289608941
 20
130.0601604435108
 30
0.0
 10
151.0679808488853
 20
129.5261204589139
 30
0.0
 10
148.3526679442928
 20
129.0988885305779
 30
0.0
 10
145.0496699958714
 20
128.7295880728233
 30
0.0
 10
142.6341890689161
 20
128.6737857043725
 30
0.0
 10
141.1807140607425
 20
128.6402075680125
 30
0.0
  0
SPLINE
  5
9A
330
1F
100
AcDbEntity
  8
0
  6
Continuous
 62
     7
370
    25
100
AcDbSpline
210
0.0
220
0.0
230
1.0
 70
     8
 71
     3
 72
    26
 73
    22
 74
     0
 42
0.00000001
 43
0.00000001
 40
0.0
 40
0.0
 40
0.0
 40
0.0
 40
0.0172625859923656
 40
0.0715050667727889
 40
0.1240809296838448
 40
0.1781693097138905
 40
0.2309707421223736
 40
0.2852893186057153
 40
0.3383249760031923
 40
0.3929046932315746
 40
0.4458168968044057
 40
0.5002807212462466
 40
0.5529012908368003
 40
0.6070492236464874
 40
0.659666254177645
 40
0.7137929726767323
 40
0.766698393252215
 40
0.8211294337855747
 40
0.87416699446849
 40
0.9287551708005655
 40
1.0
 40
1.0
 40
1.0
 40
1.0
 10
74.20186247183084
 20
137.2360463382706
 30
0.0
 10
74.19599205740441
 20
137.2367074846704
 30
0.0
 10
74.17167563252279
 20
137.2394460846397
 30
0.0
 10
74.3303682530978
 20
137.2215256605279
 30
0.0
 10
74.67775944119927
 20
137.183779156867
 30
0.0
 10
75.2169928796556
 20
137.1289480000326
 30
0.0
 10
75.92632988621955
 20
137.0640458487109
 30
0.0
 10
76.77991935695582
 20
136.9966947744173
 30
0.0
 10
77.76790858514639
 20
136.9335654680065
 30
0.0
 10
78.84506495300525
 20
136.8828683391161
 30
0.0
 10
79.99859994216685
 20
136.8496412327246
 30
0.0
 10
81.1725328438366
 20
136.8382070591889
 30
0.0
 10
82.35511578190481
 20
136.8495289132156
 30
0.0
 10
83.491451734692
 20
136.8819783103626
 30
0.0
 10
84.57220856521394
 20
136.9324108247227
 30
0.0
 10
85.54986973741771
 20
136.9944581802673
 30
0.0
 10
86.41403865204205
 20
137.062209046351
 30
0.0
 10
87.12642705455774
 20
137.1272234223163
 30
0.0
 10
87.67221578687557
 20
137.1825036011087
 30
0.0
 10
88.08827615076765
 20
137.2278532690978
 30
0.0
 10
88.1472971972139
 20
137.2346055356756
 30
0.0
 10
88.18071406074243
 20
137.2384285714285
 30
0.0
  0
LINE
  5
9B
330
1F
100
AcDbEntity
  8
0
  6
Continuous
 62
     7
370
    25
100
AcDbLine
 10
111.1807140607
 20
65.2384285714
 30
0.0
 11
171.1807140607
 21
65.2384285714
 31
0.0
  0
LINE
  5
9C
330
1F
100
AcDbEntity
  8
0
  6
Continuous
 62
     7
370
    25
100
AcDbLine
 10
111.1807140607
 20
13.2384285714
 30
0.0
 11
111.1807140607
 21
65.2384285714
 31
0.0
  0
LINE
  5
9D
330
1F
100
AcDbEntity
  8
0
  6
Continuous
 62
     7
370
    25
100
AcDbLine
 10
171.1807140607
 20
65.2384285714
 30
0.0
 11
171.1807140607
 21
13.2384285714
 31
0.0
  0
LINE
  5
9E
330
1F
100
AcDbEntity
  8
0
  6
Continuous
 62
     7
370
    25
100
AcDbLine
 10
71.1807140607
 20
66.2384285714
 30
0.0
 11
71.1807140607
 21
13.2384285714
 31
0.0
  0
LINE
  5
9F
330
1F
100
AcDbEntity
  8
0
  6
Continuous
 62
     7
370
    25
100
AcDbLine
 10
71.1807140607
 20
137.2384285714
 30
0.0
 11
71.1807140607
 21
84.2384285714
 31
0.0
  0
LINE
  5
A0
330
1F
100
AcDbEntity
  8
0
  6
Continuous
 62
     7
370
    25
100
AcDbLine
 10
211.1807140607
 20
66.2384285714
 30
0.0
 11
211.1807140607
 21
13.2384285714
 31
0.0
  0
LINE
  5
A1
330
1F
100
AcDbEntity
  8
0
  6
Continuous
 62
     7
370
    25
100
AcDbLine
 10
211.1807140607
 20
137.2384285714
 30
0.0
 11
211.1807140607
 21
84.2384285714
 31
0.0
  0
LINE
  5
A2
330
1F
100
AcDbEntity
  8
0
  6
Continuous
 62
     7
370
    25
100
AcDbLine
 10
71.1807140607
 20
77.2384285714
 30
0.0
 11
71.1807140607
 21
73.2384285714
 31
0.0
  0
LINE
  5
A3
330
1F
100
AcDbEntity
  8
0
  6
Continuous
 62
     7
370
    25
100
AcDbLine
 10
211.1807140607
 20
77.2384285714
 30
0.0
 11
211.1807140607
 21
73.2384285714
 31
0.0
  0
LINE
  5
A4
330
1F
100
AcDbEntity
  8
0
  6
Continuous
 62
     7
370
    25
100
AcDbLine
 10
141.1807140607
 20
205.2384285714
 30
0.0
 11
172.6807140607
 21
205.2384285714
 31
0.0
  0
LINE
  5
A5
330
1F
100
AcDbEntity
  8
0
  6
Continuous
 62
     7
370
    25
100
AcDbLine
 10
109.6807140607
 20
205.2384285714
 30
0.0
 11
141.1807140607
 21
205.2384285714
 31
0.0
  0
LINE
  5
A6
330
1F
100
AcDbEntity
  8
0
  6
Continuous
 62
     7
370
    25
100
AcDbLine
 10
88.1807140607
 20
152.2384285714
 30
0.0
 11
74.1807140607
 21
152.2384285714
 31
0.0
  0
LINE
  5
A7
330
1F
100
AcDbEntity
  8
0
  6
Continuous
 62
     7
370
    25
100
AcDbLine
 10
194.1807140607
 20
152.2384285714
 30
0.0
 11
208.1807140607
 21
152.2384285714
 31
0.0
  0
LINE
  5
A8
330
1F
100
AcDbEntity
  8
0
  6
Continuous
 62
     7
370
    25
100
AcDbLine
 10
350.489198283
 20
136.8420503105
 30
0.0
 11
350.489198283
 21
152.2384285714
 31
0.0
  0
LINE
  5
A9
330
1F
100
AcDbEntity
  8
0
  6
Continuous
 62
     7
370
    25
100
AcDbLine
 10
336.489198283
 20
152.2384285714
 30
0.0
 11
336.489198283
 21
136.844591067
 31
0.0
  0
LINE
  5
AA
330
1F
100
AcDbEntity
  8
0
  6
Continuous
 62
     7
370
    25
100
AcDbLine
 10
311.989198283
 20
205.2384285714
 30
0.0
 11
311.989198283
 21
128.6506920116
 31
0.0
  0
LINE
  5
AB
330
1F
100
AcDbEntity
  8
0
  6
Continuous
 62
     7
370
    25
100
AcDbLine
 10
374.989198283
 20
128.640207568
 30
0.0
 11
374.989198283
 21
205.2384285714
 31
0.0
  0
LINE
  5
AC
330
1F
100
AcDbEntity
  8
0
  6
Continuous
 62
     7
370
    25
100
AcDbLine
 10
404.8324945753
 20
84.2384285714
 30
0.0
 11
419.8324945753
 21
84.2384285714
 31
0.0
  0
LINE
  5
AD
330
1F
100
AcDbEntity
  8
0
  6
Continuous
 62
     7
370
    25
100
AcDbLine
 10
419.8324945753
 20
84.2384285714
 30
0.0
 11
419.8324945753
 21
77.2384285714
 31
0.0
  0
LINE
  5
AE
330
1F
100
AcDbEntity
  8
0
  6
Continuous
 62
     7
370
    25
100
AcDbLine
 10
419.8324945753
 20
77.2384285714
 30
0.0
 11
398.4528226177
 21
77.2384285714
 31
0.0
  0
ARC
  5
AF
330
1F
100
AcDbEntity
  8
0
  6
Continuous
 62
     7
370
    25
100
AcDbCircle
 10
343.489198283
 20
75.2384285714
 30
0.0
 40
54.99999999999996
100
AcDbArc
 50
2.0839423346
 51
357.9160576654
  0
LINE
  5
B0
330
1F
100
AcDbEntity
  8
0
  6
Continuous
 62
     7
370
    25
100
AcDbLine
 10
398.4528226177
 20
73.2384285714
 30
0.0
 11
419.8324945753
 21
73.2384285714
 31
0.0
  0
LINE
  5
B1
330
1F
100
AcDbEntity
  8
0
  6
Continuous
 62
     7
370
    25
100
AcDbLine
 10
419.8324945753
 20
73.2384285714
 30
0.0
 11
419.8324945753
 21
66.2384285714
 31
0.0
  0
LINE
  5
B2
330
1F
100
AcDbEntity
  8
0
  6
Continuous
 62
     7
370
    25
100
AcDbLine
 10
419.8324945753
 20
66.2384285714
 30
0.0
 11
404.8324945753
 21
66.2384285714
 31
0.0
  0
ARC
  5
B3
330
1F
100
AcDbEntity
  8
0
  6
Continuous
 62
     7
370
    25
100
AcDbCircle
 10
343.489198283
 20
75.2384285714
 30
0.0
 40
61.99999999999999
100
AcDbArc
 50
8.3466192632
 51
351.6533807368
  0
LINE
  5
B4
330
1F
100
AcDbEntity
  8
0
  6
Continuous
 62
     7
370
    25
100
AcDbLine
 10
350.489198283
 20
152.2384285714
 30
0.0
 11
336.489198283
 21
152.2384285714
 31
0.0
  0
LINE
  5
B5
330
1F
100
AcDbEntity
  8
0
  6
Continuous
 62
     7
370
    25
100
AcDbLine
 10
311.989198283
 20
205.2384285714
 30
0.0
 11
374.989198283
 21
205.2384285714
 31
0.0
  0
LINE
  5
B6
330
1F
100
AcDbEntity
  8
0
  6
Continuous
 62
     7
370
    25
100
AcDbLine
 10
71.1807140607
 20
262.6269596873
 30
0.0
 11
211.1807140607
 21
262.6269596873
 31
0.0
  0
LINE
  5
B7
330
1F
100
AcDbEntity
  8
0
  6
Continuous
 62
     7
370
    25
100
AcDbLine
 10
211.1807140607
 20
385.9702559795
 30
0.0
 11
71.1807140607
 21
385.9702559795
 31
0.0
  0
LINE
  5
B8
330
1F
100
AcDbEntity
  8
0
  6
Continuous
 62
     7
370
    25
100
AcDbLine
 10
211.1807140607
 20
385.9702559795
 30
0.0
 11
211.1807140607
 21
262.6269596873
 31
0.0
  0
LINE
  5
B9
330
1F
100
AcDbEntity
  8
0
  6
Continuous
 62
     7
370
    25
100
AcDbLine
 10
71.1807140607
 20
385.9702559795
 30
0.0
 11
71.1807140607
 21
262.6269596873
 31
0.0
  0
LINE
  5
BA
330
1F
100
AcDbEntity
  8
0
  6
Continuous
 62
     7
370
    25
100
AcDbLine
 10
111.1807140607
 20
385.8151938504
 30
0.0
 11
171.1807140607
 21
385.8151938504
 31
0.0
  0
LINE
  5
BB
330
1F
100
AcDbEntity
  8
0
  6
Continuous
 62
     7
370
    25
100
AcDbLine
 10
111.1807140607
 20
263.4387255241
 30
0.0
 11
111.1807140607
 21
385.8151938504
 31
0.0
  0
LINE
  5
BC
330
1F
100
AcDbEntity
  8
0
  6
Continuous
 62
     7
370
    25
100
AcDbLine
 10
171.1807140607
 20
263.4387255241
 30
0.0
 11
111.1807140607
 21
263.4387255241
 31
0.0
  0
LINE
  5
BD
330
1F
100
AcDbEntity
  8
0
  6
Continuous
 62
     7
370
    25
100
AcDbLine
 10
171.1807140607
 20
385.8151938504
 30
0.0
 11
171.1807140607
 21
263.4387255241
 31
0.0
  0
SPLINE
  5
BE
330
1F
100
AcDbEntity
  8
0
  6
Continuous
 62
     7
370
    25
100
AcDbSpline
210
0.0
220
0.0
230
1.0
 70
    11
 71
     3
 72
   132
 73
   128
 74
     0
 42
0.00000001
 43
0.00000001
 40
0.0
 40
0.0
 40
0.0
 40
0.0
 40
0.0312500000000005
 40
0.0312500000000005
 40
0.0468750000000007
 40
0.0468750000000007
 40
0.0546875000000008
 40
0.0546875000000008
 40
0.0625000000000009
 40
0.0625000000000009
 40
0.0937500000000012
 40
0.0937500000000012
 40
0.1015625000000013
 40
0.1015625000000013
 40
0.1093750000000013
 40
0.1093750000000013
 40
0.1250000000000015
 40
0.1250000000000015
 40
0.1406250000000017
 40
0.1406250000000017
 40
0.1484375000000017
 40
0.1484375000000017
 40
0.1562500000000018
 40
0.1562500000000018
 40
0.1875000000000019
 40
0.1875000000000019
 40
0.203125000000002
 40
0.203125000000002
 40
0.2109375000000021
 40
0.2109375000000021
 40
0.2187500000000021
 40
0.2187500000000021
 40
0.2500000000000023
 40
0.2500000000000023
 40
0.2578125000000023
 40
0.2578125000000023
 40
0.2656250000000024
 40
0.2656250000000024
 40
0.2812500000000025
 40
0.2812500000000025
 40
0.2968750000000026
 40
0.2968750000000026
 40
0.3046875000000027
 40
0.3046875000000027
 40
0.3125000000000027
 40
0.3125000000000027
 40
0.3437500000000029
 40
0.3437500000000029
 40
0.359375000000003
 40
0.359375000000003
 40
0.3750000000000031
 40
0.3750000000000031
 40
0.4062500000000032
 40
0.4062500000000032
 40
0.4140625000000032
 40
0.4140625000000032
 40
0.4218750000000032
 40
0.4218750000000032
 40
0.4375000000000031
 40
0.4375000000000031
 40
0.4531250000000031
 40
0.4531250000000031
 40
0.4609375000000031
 40
0.4609375000000031
 40
0.4687500000000031
 40
0.4687500000000031
 40
0.5000000000000031
 40
0.5000000000000031
 40
0.5156250000000031
 40
0.5156250000000031
 40
0.5234375000000031
 40
0.5234375000000031
 40
0.5312500000000031
 40
0.5312500000000031
 40
0.562500000000003
 40
0.562500000000003
 40
0.570312500000003
 40
0.570312500000003
 40
0.578125000000003
 40
0.578125000000003
 40
0.5937500000000029
 40
0.5937500000000029
 40
0.6093750000000028
 40
0.6093750000000028
 40
0.6250000000000027
 40
0.6250000000000027
 40
0.6562500000000026
 40
0.6562500000000026
 40
0.6640625000000026
 40
0.6640625000000026
 40
0.6718750000000026
 40
0.6718750000000026
 40
0.6875000000000024
 40
0.6875000000000024
 40
0.7187500000000023
 40
0.7187500000000023
 40
0.7343750000000022
 40
0.7343750000000022
 40
0.7500000000000021
 40
0.7500000000000021
 40
0.765625000000002
 40
0.765625000000002
 40
0.773437500000002
 40
0.773437500000002
 40
0.781250000000002
 40
0.781250000000002
 40
0.8125000000000018
 40
0.8125000000000018
 40
0.8203125000000017
 40
0.8203125000000017
 40
0.8281250000000016
 40
0.8281250000000016
 40
0.8437500000000014
 40
0.8437500000000014
 40
0.8750000000000011
 40
0.8750000000000011
 40
0.9062500000000009
 40
0.9062500000000009
 40
0.9218750000000008
 40
0.9218750000000008
 40
0.9375000000000007
 40
0.9375000000000007
 40
0.9687500000000003
 40
0.9687500000000003
 40
0.9843750000000002
 40
0.9843750000000002
 40
1.0
 40
1.0
 40
1.0
 40
1.0
 10
141.1807140607425
 20
298.9269596872545
 30
0.0
 10
142.9053003795783
 20
298.9269596872545
 30
0.0
 10
144.5951346374859
 20
299.0987259968224
 30
0.0
 10
147.0815306498929
 20
299.5992728307298
 30
0.0
 10
147.9022195375759
 20
299.8069322343281
 30
0.0
 10
149.1211165071447
 20
300.1806796297703
 30
0.0
 10
149.5254861297439
 20
300.3157764308922
 30
0.0
 10
150.3208622191293
 20
300.6035014880119
 30
0.0
 10
150.7130831992078
 20
300.756478453503
 30
0.0
 10
152.6478098186022
 20
301.5659387548314
 30
0.0
 10
154.1120076703919
 20
302.3546316035404
 30
0.0
 10
155.8443516378525
 20
303.516730116022
 30
0.0
 10
156.1867084142627
 20
303.758696953461
 30
0.0
 10
156.856531606391
 20
304.2570554081457
 30
0.0
 10
157.1840092411218
 20
304.5133705192325
 30
0.0
 10
158.1447898182285
 20
305.3034549043334
 30
0.0
 10
158.756502718132
 20
305.8583051105643
 30
0.0
 10
159.9241644872872
 20
307.0242948987632
 30
0.0
 10
160.4801107999417
 20
307.6354329501892
 30
0.0
 10
161.2721077648376
 20
308.5958002511625
 30
0.0
 10
161.5291045618999
 20
308.923214198442
 30
0.0
 10
162.0288887037838
 20
309.593056919901
 30
0.0
 10
162.2720194773239
 20
309.9360864945377
 30
0.0
 10
163.4391549471491
 20
311.6712459382424
 30
0.0
 10
164.2291133737026
 20
313.1352382472778
 30
0.0
 10
165.2005281361736
 20
315.448826711663
 30
0.0
 10
165.4884634064707
 20
316.2397563416303
 30
0.0
 10
165.8641152799264
 20
317.4575685829356
 30
0.0
 10
165.9802571626307
 20
317.8701226783801
 30
0.0
 10
166.1909557865491
 20
318.6973734248224
 30
0.0
 10
166.2856683954724
 20
319.1122900168863
 30
0.0
 10
166.7068715768321
 20
321.1932587657678
 30
0.0
 10
166.8778303038267
 20
322.8783045098701
 30
0.0
 10
166.8813902241112
 20
325.0104872343745
 30
0.0
 10
166.8714979620462
 20
325.4382278914451
 30
0.0
 10
166.8300335256257
 20
326.2963741208153
 30
0.0
 10
166.7983577184625
 20
326.7269239142649
 30
0.0
 10
166.6720277011597
 20
328.0058639771767
 30
0.0
 10
166.5459851792216
 20
328.8472037043445
 30
0.0
 10
166.2130616452164
 20
330.5082021484881
 30
0.0
 10
166.0061741360777
 20
331.3278588101147
 30
0.0
 10
165.6354080085325
 20
332.5413025640588
 30
0.0
 10
165.5017277465688
 20
332.9431058368472
 30
0.0
 10
165.2139840800179
 20
333.7413398454513
 30
0.0
 10
165.0594925820594
 20
334.1387006828662
 30
0.0
 10
164.2437623315148
 20
336.0923114683087
 30
0.0
 10
163.4510041080286
 20
337.5612404360619
 30
0.0
 10
162.0599091803127
 20
339.635026534078
 30
0.0
 10
161.5610283326009
 20
340.3059969877452
 30
0.0
 10
160.4985550720156
 20
341.5978299994414
 30
0.0
 10
159.9404810284405
 20
342.2123063427931
 30
0.0
 10
158.1872515889584
 20
343.966059356385
 30
0.0
 10
156.9140408124389
 20
345.0166407375484
 30
0.0
 10
155.1828677784545
 20
346.1816310548743
 30
0.0
 10
154.828561228025
 20
346.407724578717
 30
0.0
 10
154.1115168290247
 20
346.8409145653588
 30
0.0
 10
153.7487313181663
 20
347.0481297246883
 30
0.0
 10
152.6475879264273
 20
347.6420959734067
 30
0.0
 10
151.8964753097073
 20
348.0012435809014
 30
0.0
 10
150.3594444094304
 20
348.6464433593006
 30
0.0
 10
149.5735286545957
 20
348.9324988595526
 30
0.0
 10
148.3671773818278
 20
349.3053285099791
 30
0.0
 10
147.9604721967379
 20
349.4202099247033
 30
0.0
 10
147.1375451534955
 20
349.6306902299507
 30
0.0
 10
146.7202280501196
 20
349.7265062402273
 30
0.0
 10
144.6215861579005
 20
350.1531352265831
 30
0.0
 10
142.933185336839
 20
350.3232888404726
 30
0.0
 10
140.3865075865873
 20
350.3287078370872
 30
0.0
 10
139.5352562331261
 20
350.2885688898068
 30
0.0
 10
138.2547434798198
 20
350.163455643852
 30
0.0
 10
137.8264084599493
 20
350.1107194409038
 30
0.0
 10
136.9792610353989
 20
349.9848217761818
 30
0.0
 10
136.559246484496
 20
349.9115893418545
 30
0.0
 10
134.4764327785657
 20
349.4952117719234
 30
0.0
 10
132.8649583409794
 20
349.0030260899683
 30
0.0
 10
130.9152260449072
 20
348.1915126471668
 30
0.0
 10
130.5278323886187
 20
348.0189124265458
 30
0.0
 10
129.767159036502
 20
347.6573331663395
 30
0.0
 10
129.3930398824194
 20
347.4680476580587
 30
0.0
 10
128.2886910998916
 20
346.875195412232
 30
0.0
 10
127.5764199321962
 20
346.4467043610172
 30
0.0
 10
126.1976752954482
 20
345.5240079410601
 30
0.0
 10
125.5312049217839
 20
345.0298021351387
 30
0.0
 10
124.2435257037349
 20
343.974175683433
 30
0.0
 10
123.6216026501873
 20
343.4114245790607
 30
0.0
 10
121.8588880533778
 20
341.6537356281152
 30
0.0
 10
120.8070395483452
 20
340.3804253284483
 30
0.0
 10
119.6438046958081
 20
338.6563771131293
 30
0.0
 10
119.4188191678722
 20
338.3048814205017
 30
0.0
 10
118.9844456787365
 20
337.5881047826206
 30
0.0
 10
118.7745424590182
 20
337.2218539666142
 30
0.0
 10
118.1727169388201
 20
336.1088419133641
 30
0.0
 10
117.8103161196042
 20
335.3515385897621
 30
0.0
 10
116.8369021281968
 20
333.0339324388422
 30
0.0
 10
116.3384557959284
 20
331.428382460349
 30
0.0
 10
115.8278695358226
 20
328.9223131481195
 30
0.0
 10
115.6976919498194
 20
328.067200321305
 30
0.0
 10
115.5254953813314
 20
326.3674843315965
 30
0.0
 10
115.4821220226412
 20
325.5178864268123
 30
0.0
 10
115.4793733874599
 20
323.81920304575
 30
0.0
 10
115.5199990412532
 20
322.9701175745027
 30
0.0
 10
115.644730132691
 20
321.6968777599346
 30
0.0
 10
115.6969586409604
 20
321.2725293221922
 30
0.0
 10
115.8230954572132
 20
320.4239640737341
 30
0.0
 10
115.8971511469764
 20
319.9994033217149
 30
0.0
 10
116.3169876001414
 20
317.9030909361404
 30
0.0
 10
116.8125032430293
 20
316.2891720333562
 30
0.0
 10
117.6231464280152
 20
314.3455002909379
 30
0.0
 10
117.7949346683031
 20
313.9604859159518
 30
0.0
 10
118.1580096977352
 20
313.1978991694651
 30
0.0
 10
118.3497669188309
 20
312.819531247278
 30
0.0
 10
118.9487243448892
 20
311.706484141753
 30
0.0
 10
119.3806902708676
 20
310.9909544169493
 30
0.0
 10
120.7715358197326
 20
308.9195680702385
 30
0.0
 10
121.8251589230447
 20
307.6372609153222
 30
0.0
 10
124.190448383514
 20
305.2719021759308
 30
0.0
 10
125.4682166142662
 20
304.2223340884063
 30
0.0
 10
127.5293005832374
 20
302.8367270009139
 30
0.0
 10
128.2406007090619
 20
302.4065919210613
 30
0.0
 10
129.7145955159455
 20
301.6113258107808
 30
0.0
 10
130.4806912787397
 20
301.2452014897242
 30
0.0
 10
132.8076936496972
 20
300.2710375127844
 30
0.0
 10
134.4107904344782
 20
299.7770049789009
 30
0.0
 10
136.8977508241908
 20
299.2722410999281
 30
0.0
 10
137.7405423814081
 20
299.1436682869834
 30
0.0
 10
139.4556744445373
 20
298.9704369279842
 30
0.0
 10
140.3184209013246
 20
298.9269596872545
 30
0.0
 10
141.1807140607425
 20
298.9269596872545
 30
0.0
  0
LINE
  5
BF
330
1F
100
AcDbEntity
  8
0
  6
Continuous
 62
     7
370
    25
100
AcDbLine
 10
171.1807140607
 20
378.7102288192
 30
0.0
 11
111.1807140607
 21
378.7102288192
 31
0.0
  0
LINE
  5
C0
330
1F
100
AcDbEntity
  8
0
  6
Continuous
 62
     7
370
    25
100
AcDbLine
 10
111.1807140607
 20
270.5436905553
 30
0.0
 11
171.1807140607
 21
270.5436905553
 31
0.0
  0
LINE
  5
C1
330
1F
100
AcDbEntity
  8
0
  6
Continuous
 62
     7
370
    25
100
AcDbLine
 10
211.1807140607
 20
400.9702559795
 30
0.0
 11
71.1807140607
 21
400.9702559795
 31
0.0
  0
LINE
  5
C2
330
1F
100
AcDbEntity
  8
0
  6
Continuous
 62
     7
370
    25
100
AcDbLine
 10
71.1807140607
 20
400.9702559795
 30
0.0
 11
71.1807140607
 21
385.9702559795
 31
0.0
  0
LINE
  5
C3
330
1F
100
AcDbEntity
  8
0
  6
Continuous
 62
     7
370
    25
100
AcDbLine
 10
211.1807140607
 20
400.9702559795
 30
0.0
 11
211.1807140607
 21
385.9702559795
 31
0.0
  0
INSERT
  5
CF
330
1F
100
AcDbEntity
  8
FORMAT
100
AcDbBlockReference
  2
SW_CENTERMARKSYMBOL_0
 10
141.1807140607
 20
324.6269596873
 30
0.0
  0
LINE
  5
D0
330
1F
100
AcDbEntity
  8
0
  6
Continuous
 62
     7
370
    25
100
AcDbLine
 10
-36.7275441897
 20
136.8420503105
 30
0.0
 11
-36.7275441897
 21
152.2384285714
 31
0.0
  0
LINE
  5
D1
330
1F
100
AcDbEntity
  8
0
  6
Continuous
 62
     7
370
    25
100
AcDbLine
 10
-50.7275441897
 20
152.2384285714
 30
0.0
 11
-50.7275441897
 21
136.844591067
 31
0.0
  0
LINE
  5
D2
330
1F
100
AcDbEntity
  8
0
  6
Continuous
 62
     7
370
    25
100
AcDbLine
 10
-75.2275441897
 20
205.2384285714
 30
0.0
 11
-75.2275441897
 21
128.640207568
 31
0.0
  0
LINE
  5
D3
330
1F
100
AcDbEntity
  8
0
  6
Continuous
 62
     7
370
    25
100
AcDbLine
 10
-12.2275441897
 20
128.6506920116
 30
0.0
 11
-12.2275441897
 21
205.2384285714
 31
0.0
  0
LINE
  5
D4
330
1F
100
AcDbEntity
  8
0
  6
Continuous
 62
     7
370
    25
100
AcDbLine
 10
-120.070840482
 20
66.2384285714
 30
0.0
 11
-105.070840482
 21
66.2384285714
 31
0.0
  0
LINE
  5
D5
330
1F
100
AcDbEntity
  8
0
  6
Continuous
 62
     7
370
    25
100
AcDbLine
 10
-120.070840482
 20
73.2384285714
 30
0.0
 11
-120.070840482
 21
66.2384285714
 31
0.0
  0
LINE
  5
D6
330
1F
100
AcDbEntity
  8
0
  6
Continuous
 62
     7
370
    25
100
AcDbLine
 10
-98.6911685243
 20
73.2384285714
 30
0.0
 11
-120.070840482
 21
73.2384285714
 31
0.0
  0
ARC
  5
D7
330
1F
100
AcDbEntity
  8
0
  6
Continuous
 62
     7
370
    25
100
AcDbCircle
 10
-43.7275441897
 20
75.2384285714
 30
0.0
 40
55.00000000000001
100
AcDbArc
 50
182.0839423346
 51
177.9160576654
  0
LINE
  5
D8
330
1F
100
AcDbEntity
  8
0
  6
Continuous
 62
     7
370
    25
100
AcDbLine
 10
-120.070840482
 20
77.2384285714
 30
0.0
 11
-98.6911685243
 21
77.2384285714
 31
0.0
  0
LINE
  5
D9
330
1F
100
AcDbEntity
  8
0
  6
Continuous
 62
     7
370
    25
100
AcDbLine
 10
-120.070840482
 20
84.2384285714
 30
0.0
 11
-120.070840482
 21
77.2384285714
 31
0.0
  0
LINE
  5
DA
330
1F
100
AcDbEntity
  8
0
  6
Continuous
 62
     7
370
    25
100
AcDbLine
 10
-105.070840482
 20
84.2384285714
 30
0.0
 11
-120.070840482
 21
84.2384285714
 31
0.0
  0
ARC
  5
DB
330
1F
100
AcDbEntity
  8
0
  6
Continuous
 62
     7
370
    25
100
AcDbCircle
 10
-43.7275441897
 20
75.2384285714
 30
0.0
 40
62.00000000000001
100
AcDbArc
 50
188.3466192632
 51
171.6533807368
  0
LINE
  5
DC
330
1F
100
AcDbEntity
  8
0
  6
Continuous
 62
     7
370
    25
100
AcDbLine
 10
-50.7275441897
 20
152.2384285714
 30
0.0
 11
-36.7275441897
 21
152.2384285714
 31
0.0
  0
LINE
  5
DD
330
1F
100
AcDbEntity
  8
0
  6
Continuous
 62
     7
370
    25
100
AcDbLine
 10
-75.2275441897
 20
205.2384285714
 30
0.0
 11
-12.2275441897
 21
205.2384285714
 31
0.0
  0
LINE
  5
DE
330
1F
100
AcDbEntity
  8
0
  6
Continuous
 62
     7
370
    25
100
AcDbLine
 10
211.1807140607
 20
-49.0416582409
 30
0.0
 11
71.1807140607
 21
-49.0416582409
 31
0.0
  0
CIRCLE
  5
DF
330
1F
100
AcDbEntity
  8
0
  6
Continuous
 62
     7
370
    25
100
AcDbCircle
 10
141.1807140607
 20
-111.0416582409
 30
0.0
 40
25.70000000000002
  0
CIRCLE
  5
E0
330
1F
100
AcDbEntity
  8
0
  6
Continuous
 62
     7
370
    25
100
AcDbCircle
 10
141.1807140607
 20
-111.0416582409
 30
0.0
 40
31.5
  0
CIRCLE
  5
E1
330
1F
100
AcDbEntity
  8
0
  6
Continuous
 62
     7
370
    25
100
AcDbCircle
 10
81.1807140607
 20
-111.0416582409
 30
0.0
 40
4.599999999999952
  0
CIRCLE
  5
E2
330
1F
100
AcDbEntity
  8
0
  6
Continuous
 62
     7
370
    25
100
AcDbCircle
 10
81.1807140607
 20
-111.0416582409
 30
0.0
 40
6.999999999999943
  0
CIRCLE
  5
E3
330
1F
100
AcDbEntity
  8
0
  6
Continuous
 62
     7
370
    25
100
AcDbCircle
 10
201.1807140607
 20
-111.0416582409
 30
0.0
 40
4.599999999999966
  0
CIRCLE
  5
E4
330
1F
100
AcDbEntity
  8
0
  6
Continuous
 62
     7
370
    25
100
AcDbCircle
 10
201.1807140607
 20
-111.0416582409
 30
0.0
 40
6.999999999999943
  0
CIRCLE
  5
E5
330
1F
100
AcDbEntity
  8
0
  6
Continuous
 62
     7
370
    25
100
AcDbCircle
 10
81.1807140607
 20
-111.0416582409
 30
0.0
 40
1.499999999999972
  0
CIRCLE
  5
E6
330
1F
100
AcDbEntity
  8
0
  6
Continuous
 62
     7
370
    25
100
AcDbCircle
 10
81.1807140607
 20
-111.0416582409
 30
0.0
 40
1.999999999999972
  0
CIRCLE
  5
E7
330
1F
100
AcDbEntity
  8
0
  6
Continuous
 62
     7
370
    25
100
AcDbCircle
 10
201.1807140607
 20
-111.0416582409
 30
0.0
 40
1.499999999999972
  0
CIRCLE
  5
E8
330
1F
100
AcDbEntity
  8
0
  6
Continuous
 62
     7
370
    25
100
AcDbCircle
 10
201.1807140607
 20
-111.0416582409
 30
0.0
 40
1.999999999999972
  0
LINE
  5
E9
330
1F
100
AcDbEntity
  8
0
  6
Continuous
 62
     7
370
    25
100
AcDbLine
 10
211.1807140607
 20
-49.0416582409
 30
0.0
 11
211.1807140607
 21
-172.3849545331
 31
0.0
  0
LINE
  5
EA
330
1F
100
AcDbEntity
  8
0
  6
Continuous
 62
     7
370
    25
100
AcDbLine
 10
211.1807140607
 20
-172.3849545331
 30
0.0
 11
71.1807140607
 21
-172.3849545331
 31
0.0
  0
LINE
  5
EB
330
1F
100
AcDbEntity
  8
0
  6
Continuous
 62
     7
370
    25
100
AcDbLine
 10
71.1807140607
 20
-49.0416582409
 30
0.0
 11
71.1807140607
 21
-172.3849545331
 31
0.0
  0
LINE
  5
EC
330
1F
100
AcDbEntity
  8
0
  6
Continuous
 62
     7
370
    25
100
AcDbLine
 10
211.1807140607
 20
-187.3849545331
 30
0.0
 11
71.1807140607
 21
-187.3849545331
 31
0.0
  0
LINE
  5
ED
330
1F
100
AcDbEntity
  8
0
  6
Continuous
 62
     7
370
    25
100
AcDbLine
 10
71.1807140607
 20
-172.3849545331
 30
0.0
 11
71.1807140607
 21
-187.3849545331
 31
0.0
  0
LINE
  5
EE
330
1F
100
AcDbEntity
  8
0
  6
Continuous
 62
     7
370
    25
100
AcDbLine
 10
211.1807140607
 20
-172.3849545331
 30
0.0
 11
211.1807140607
 21
-187.3849545331
 31
0.0
  0
INSERT
  5
FA
330
1F
100
AcDbEntity
  8
FORMAT
100
AcDbBlockReference
  2
SW_CENTERMARKSYMBOL_1
 10
141.1807140607
 20
-111.0416582409
 30
0.0
  0
INSERT
  5
106
330
1F
100
AcDbEntity
  8
FORMAT
100
AcDbBlockReference
  2
SW_CENTERMARKSYMBOL_2
 10
81.1807140607
 20
-111.0416582409
 30
0.0
  0
INSERT
  5
112
330
1F
100
AcDbEntity
  8
FORMAT
100
AcDbBlockReference
  2
SW_CENTERMARKSYMBOL_3
 10
201.1807140607
 20
-111.0416582409
 30
0.0
  0
LINE
  5
113
330
1F
100
AcDbEntity
  8
0
  6
Continuous
 62
     7
370
    25
100
AcDbLine
 10
425.3261288172
 20
-173.2472148813
 30
0.0
 11
453.6104000647
 21
-156.9190526449
 31
0.0
  0
LINE
  5
114
330
1F
100
AcDbEntity
  8
0
  6
Continuous
 62
     7
370
    25
100
AcDbLine
 10
354.6154506986
 20
-214.0676204725
 30
0.0
 11
382.899721946
 21
-197.739458236
 31
0.0
  0
LINE
  5
115
330
1F
100
AcDbEntity
  8
0
  6
Continuous
 62
     7
370
    25
100
AcDbLine
 10
391.6154386412
 20
-49.5289937097
 30
0.0
 11
292.6204892751
 21
-106.6775615373
 31
0.0
  0
LINE
  5
116
330
1F
100
AcDbEntity
  8
0
  6
Continuous
 62
     7
370
    25
100
AcDbLine
 10
422.5418515411
 20
-52.5575327828
 30
0.0
 11
422.5418515411
 21
-44.4324212212
 31
0.0
  0
LINE
  5
117
330
1F
100
AcDbEntity
  8
0
  6
Continuous
 62
     7
370
    25
100
AcDbLine
 10
408.5418515411
 20
-44.4324212212
 30
0.0
 11
408.5418515411
 21
-47.1538889164
 31
0.0
  0
LINE
  5
118
330
1F
100
AcDbEntity
  8
0
  6
Continuous
 62
     7
370
    25
100
AcDbLine
 10
341.6154446699
 20
-25.6480015459
 30
0.0
 11
341.6154446699
 21
-78.3933758337
 31
0.0
  0
LINE
  5
119
330
1F
100
AcDbEntity
  8
0
  6
Continuous
 62
     7
370
    25
100
AcDbLine
 10
404.6154446699
 20
-46.6713437083
 30
0.0
 11
404.6154446699
 21
-25.6480015459
 31
0.0
  0
LINE
  5
11A
330
1F
100
AcDbEntity
  8
0
  6
Continuous
 62
     7
370
    25
100
AcDbLine
 10
368.6300568466
 20
-79.4092472961
 30
0.0
 11
379.2366585644
 21
-85.5323081348
 31
0.0
  0
LINE
  5
11B
330
1F
100
AcDbEntity
  8
0
  6
Continuous
 62
     7
370
    25
100
AcDbLine
 10
368.6300568466
 20
-73.6934616129
 30
0.0
 11
368.6300568466
 21
-79.4092472961
 31
0.0
  0
LINE
  5
11C
330
1F
100
AcDbEntity
  8
0
  6
Continuous
 62
     7
370
    25
100
AcDbLine
 10
383.7477678673
 20
-82.4207304201
 30
0.0
 11
368.6300568466
 21
-73.6934616129
 31
0.0
  0
LWPOLYLINE
  5
11D
330
1F
100
AcDbEntity
  8
0
  6
Continuous
 62
     7
370
    25
100
AcDbPolyline
 90
      107
 70
   128
 43
0.0
 10
383.7477678673
 20
-79.1545671725
 10
383.8972646667
 20
-76.6156958693
 10
384.1796218983
 20
-74.168136308
 10
384.5938705972
 20
-71.8202877735
 10
385.1385891872
 20
-69.5802073729
 10
385.8119083585
 20
-67.4555823855
 10
386.6115174831
 20
-65.4537038823
 10
387.5346725442
 20
-63.5814417058
 10
388.5782055523
 20
-61.8452208942
 10
389.7385354174
 20
-60.2509996328
 10
391.0116802378
 20
-58.8042488075
 10
392.3932709652
 20
-57.5099332301
 10
393.8785663975
 20
-56.3724946006
 10
395.4624694495
 20
-55.3958362649
 10
397.1395446442
 20
-54.5833098193
 10
398.9040367663
 20
-53.9377036092
 10
400.7498906117
 20
-53.4612331601
 10
402.6707717677
 20
-53.1555335746
 10
404.6600883503
 20
-53.0216539213
 10
406.7110136259
 20
-53.0600536349
 10
408.8165094385
 20
-53.270600939
 10
410.9693503626
 20
-53.652573299
 10
413.1621484982
 20
-54.204659901
 10
415.3873788247
 20
-54.9249661506
 10
417.6374050237
 20
-55.8110201744
 10
419.9045056849
 20
-56.8597813025
 10
422.1809008036
 20
-58.0676505037
 10
424.4587784796
 20
-59.4304827356
 10
426.7303217246
 20
-60.9436011696
 10
428.9877352884
 20
-62.6018132405
 10
431.2232724095
 20
-64.3994284653
 10
433.4292613998
 20
-66.3302779714
 10
435.5981319715
 20
-68.3877356667
 10
437.7224412159
 20
-70.5647409779
 10
439.7948991454
 20
-72.8538230802
 10
441.8083937103
 20
-75.2471265355
 10
443.7560152056
 20
-77.7364382491
 10
445.6310799825
 20
-80.3132156552
 10
447.4271533852
 20
-82.9686160321
 10
449.1380718322
 20
-85.6935268478
 10
450.7579639684
 20
-88.4785970316
 10
452.2812708131
 20
-91.3142690637
 10
453.7027648374
 20
-94.1908117745
 10
455.0175679033
 20
-97.0983537381
 10
456.2211680037
 20
-100.0269171489
 10
457.3094347467
 20
-102.9664520618
 10
458.2786335296
 20
-105.906870881
 10
459.1254383548
 20
-108.8380829773
 10
459.8469432441
 20
-111.7500293162
 10
460.4406722106
 20
-114.6327169774
 10
460.9045877558
 20
-117.4762534477
 10
461.2370978617
 20
-120.2708805689
 10
461.437061454
 20
-123.0070080247
 10
461.5037923182
 20
-125.6752462524
 10
461.437061454
 20
-128.2664386643
 10
461.2370978617
 20
-130.7716930707
 10
460.9045877558
 20
-133.1824121953
 10
460.4406722106
 20
-135.4903231782
 10
459.8469432441
 20
-137.6875059661
 10
459.1254383548
 20
-139.7664204914
 10
458.2786335296
 20
-141.7199325474
 10
457.3094347467
 20
-143.5413382707
 10
456.2211680037
 20
-145.2243871472
 10
455.0175679033
 20
-146.7633034615
 10
453.7027648374
 20
-148.1528061177
 10
452.2812708131
 20
-149.3881267623
 10
450.7579639684
 20
-150.4650261481
 10
449.1380718322
 20
-151.3798086817
 10
447.4271533852
 20
-152.1293351057
 10
445.6310799825
 20
-152.7110332719
 10
443.7560152056
 20
-153.1229069678
 10
441.8083937103
 20
-153.3635427674
 10
439.7948991454
 20
-153.4321148812
 10
437.7224412159
 20
-153.3283879906
 10
435.5981319715
 20
-153.0527180548
 10
433.4292613998
 20
-152.6060510898
 10
431.2232724095
 20
-151.9899199218
 10
428.9877352884
 20
-151.2064389266
 10
426.7303217246
 20
-150.2582967746
 10
424.4587784796
 20
-149.1487472031
 10
422.1809008036
 20
-147.8815978511
 10
419.9045056849
 20
-146.4611971924
 10
417.6374050237
 20
-144.892419613
 10
415.3873788247
 20
-143.1806486837
 10
413.1621484982
 20
-141.3317586853
 10
410.9693503626
 20
-139.3520944497
 10
408.8165094385
 20
-137.2484495866
 10
406.7110136259
 20
-135.0280431697
 10
404.6600883503
 20
-132.6984949632
 10
402.6707717677
 20
-130.2677992728
 10
400.7498906117
 20
-127.7442975119
 10
398.9040367663
 20
-125.1366495762
 10
397.1395446442
 20
-122.4538041258
 10
395.4624694495
 20
-119.7049678759
 10
393.8785663975
 20
-116.8995740022
 10
392.3932709652
 20
-114.0472497689
 10
391.0116802378
 20
-111.1577834914
 10
389.7385354174
 20
-108.2410909449
 10
388.5782055523
 20
-105.3071813374
 10
387.5346725442
 20
-102.3661229603
 10
386.6115174831
 20
-99.4280086376
 10
385.8119083585
 20
-96.5029210902
 10
385.1385891872
 20
-93.6008983349
 10
384.5938705972
 20
-90.7318992373
 10
384.1796218983
 20
-87.9057693355
 10
383.8972646667
 20
-85.1322070538
 10
383.7477678673
 20
-82.4207304201
  0
LINE
  5
11E
330
1F
100
AcDbEntity
  8
0
  6
Continuous
 62
     7
370
    25
100
AcDbLine
 10
368.6300568466
 20
-70.4272983654
 30
0.0
 11
383.7477678673
 21
-79.1545671725
 31
0.0
  0
LINE
  5
11F
330
1F
100
AcDbEntity
  8
0
  6
Continuous
 62
     7
370
    25
100
AcDbLine
 10
368.6300568466
 20
-64.7115126822
 30
0.0
 11
368.6300568466
 21
-70.4272983654
 31
0.0
  0
LINE
  5
120
330
1F
100
AcDbEntity
  8
0
  6
Continuous
 62
     7
370
    25
100
AcDbLine
 10
379.2366585644
 20
-70.8345735208
 30
0.0
 11
368.6300568466
 21
-64.7115126822
 31
0.0
  0
LWPOLYLINE
  5
121
330
1F
100
AcDbEntity
  8
0
  6
Continuous
 62
     7
370
    25
100
AcDbPolyline
 90
      109
 70
   128
 43
0.0
 10
379.2366585644
 20
-85.5323081348
 10
379.6562890846
 20
-88.540774738
 10
380.2081072127
 20
-91.5944251342
 10
380.8904148753
 20
-94.6838625263
 10
381.7011124518
 20
-97.7995799919
 10
382.6377052361
 20
-100.9319897392
 10
383.6973111129
 20
-104.07145261
 10
384.8766694268
 20
-107.208307742
 10
386.1721510162
 20
-110.3329022976
 10
387.579769381
 20
-113.4356211679
 10
389.0951929499
 20
-116.5069165606
 10
390.7137584099
 20
-119.5373373806
 10
392.430485056
 20
-122.5175583137
 10
394.2400901184
 20
-125.4384085224
 10
396.1370050189
 20
-128.2908998667
 10
398.115392506
 20
-131.066254563
 10
400.1691646184
 20
-133.7559321951
 10
402.2920014185
 20
-136.3516559953
 10
404.4773704403
 20
-138.8454383138
 10
406.718546792
 20
-141.2296051986
 10
409.008633849
 20
-143.4968200099
 10
411.3405844775
 20
-145.6401059971
 10
413.7072227194
 20
-147.6528677673
 10
416.1012658747
 20
-149.5289115815
 10
418.5153469122
 20
-151.2624644135
 10
420.9420371394
 20
-152.8481917155
 10
423.3738690624
 20
-154.2812138334
 10
425.8033593649
 20
-155.5571210225
 10
428.2230319367
 20
-156.6719870178
 10
430.6254408786
 20
-157.6223811156
 10
433.0031934159
 20
-158.4053787307
 10
435.3489726475
 20
-159.0185703963
 10
437.6555600614
 20
-159.4600691779
 10
439.9158577483
 20
-159.7285164805
 10
442.1229102429
 20
-159.8230862288
 10
444.269925928
 20
-159.7434874097
 10
446.3502979337
 20
-159.4899649672
 10
448.3576244683
 20
-159.0632990494
 10
450.2857285182
 20
-158.4648026072
 10
452.1286768557
 20
-157.6963173541
 10
453.8807982975
 20
-156.7602080993
 10
455.5367011556
 20
-155.65935547
 10
457.0912898292
 20
-154.3971470476
 10
458.5397804851
 20
-152.9774669429
 10
459.8777157785
 20
-151.4046838438
 10
461.1009785691
 20
-149.6836375722
 10
462.205804591
 20
-147.8196241904
 10
463.1887940359
 20
-145.818379704
 10
464.0469220151
 20
-143.6860624107
 10
464.777547868
 20
-141.4292339501
 10
465.3784232877
 20
-139.0548391116
 10
465.84769924
 20
-136.5701844641
 10
466.1839316527
 20
-133.9829158717
 10
466.3860858602
 20
-131.3009949654
 10
466.4535397865
 20
-128.5326746438
 10
466.3860858602
 20
-125.6864736766
 10
466.1839316527
 20
-122.7711504905
 10
465.84769924
 20
-119.7956762174
 10
465.3784232877
 20
-116.7692070883
 10
464.777547868
 20
-113.7010562573
 10
464.0469220151
 20
-110.6006651426
 10
463.1887940359
 20
-107.4775743737
 10
462.205804591
 20
-104.341394432
 10
461.1009785691
 20
-101.2017760773
 10
459.8777157785
 20
-98.0683806504
 10
458.5397804851
 20
-94.9508503425
 10
457.0912898292
 20
-91.8587785243
 10
455.5367011556
 20
-88.8016802246
 10
453.8807982975
 20
-85.7889628506
 10
452.1286768557
 20
-82.829897239
 10
450.2857285182
 20
-79.9335891273
 10
448.3576244683
 20
-77.1089511338
 10
446.3502979337
 20
-74.3646753309
 10
444.269925928
 20
-71.7092064975
 10
442.1229102429
 20
-69.150716133
 10
439.9158577483
 20
-66.6970773113
 10
437.6555600614
 20
-64.3558404533
 10
435.3489726475
 20
-62.1342100931
 10
433.0031934159
 20
-60.0390227073
 10
430.6254408786
 20
-58.0767256781
 10
428.2230319367
 20
-56.2533574527
 10
425.8033593649
 20
-54.5745289622
 10
423.3738690624
 20
-53.0454063547
 10
420.9420371394
 20
-51.6706950986
 10
418.5153469122
 20
-50.4546255022
 10
416.1012658747
 20
-49.4009396963
 10
413.7072227194
 20
-48.512880119
 10
411.3405844775
 20
-47.7931795372
 10
409.008633849
 20
-47.2440526384
 10
406.718546792
 20
-46.8671892145
 10
404.4773704403
 20
-46.6637489624
 10
402.2920014185
 20
-46.6343579155
 10
400.1691646184
 20
-46.7791065168
 10
398.115392506
 20
-47.0975493411
 10
396.1370050189
 20
-47.5887064653
 10
394.2400901184
 20
-48.2510664838
 10
392.430485056
 20
-49.0825911599
 10
390.7137584099
 20
-50.0807216974
 10
389.0951929499
 20
-51.242386615
 10
387.579769381
 20
-52.5640111977
 10
386.1721510162
 20
-54.0415284975
 10
384.8766694268
 20
-55.6703918475
 10
383.6973111129
 20
-57.445588854
 10
382.6377052361
 20
-59.3616568201
 10
381.7011124518
 20
-61.4126995562
 10
380.8904148753
 20
-63.5924055235
 10
380.2081072127
 20
-65.8940672566
 10
379.6562890846
 20
-68.3106020034
 10
379.2366585644
 20
-70.8345735208
  0
LINE
  5
122
330
1F
100
AcDbEntity
  8
0
  6
Continuous
 62
     7
370
    25
100
AcDbLine
 10
379.2366585644
 20
-85.5323081348
 30
0.0
 11
280.2417091983
 21
-142.6808759624
 31
0.0
  0
LWPOLYLINE
  5
123
330
1F
100
AcDbEntity
  8
0
  6
Continuous
 62
     7
370
    25
100
AcDbPolyline
 90
       41
 70
   128
 43
0.0
 10
280.2417091983
 20
-142.6808759624
 10
280.6613397185
 20
-145.6893425656
 10
281.2131578466
 20
-148.7429929618
 10
281.8954655092
 20
-151.8324303538
 10
282.7061630857
 20
-154.9481478195
 10
283.64275587
 20
-158.0805575668
 10
284.7023617468
 20
-161.2200204376
 10
285.8817200607
 20
-164.3568755696
 10
287.1772016501
 20
-167.4814701252
 10
288.5848200149
 20
-170.5841889955
 10
290.1002435838
 20
-173.6554843882
 10
291.7188090437
 20
-176.6859052082
 10
293.4355356898
 20
-179.6661261413
 10
295.2451407523
 20
-182.5869763499
 10
297.1420556527
 20
-185.4394676943
 10
299.1204431399
 20
-188.2148223905
 10
301.1742152523
 20
-190.9045000227
 10
303.2970520523
 20
-193.5002238229
 10
305.4824210742
 20
-195.9940061414
 10
307.7235974259
 20
-198.3781730262
 10
310.0136844829
 20
-200.6453878375
 10
312.3456351114
 20
-202.7886738247
 10
314.7122733532
 20
-204.8014355949
 10
317.1063165086
 20
-206.6774794091
 10
319.5203975461
 20
-208.4110322411
 10
321.9470877733
 20
-209.9967595431
 10
324.3789196963
 20
-211.429781661
 10
326.8084099988
 20
-212.7056888501
 10
329.2280825705
 20
-213.8205548454
 10
331.6304915124
 20
-214.7709489432
 10
334.0082440498
 20
-215.5539465583
 10
336.3540232814
 20
-216.1671382239
 10
338.6606106953
 20
-216.6086370055
 10
340.9209083822
 20
-216.877084308
 10
343.1279608767
 20
-216.9716540564
 10
345.2749765618
 20
-216.8920552373
 10
347.3553485676
 20
-216.6385327948
 10
349.3626751022
 20
-216.211866877
 10
351.2907791521
 20
-215.6133704348
 10
353.1337274896
 20
-214.8448851817
 10
354.6154506986
 20
-214.0676204725
  0
ARC
  5
124
330
1F
100
AcDbEntity
  8
0
  6
Continuous
 62
     7
370
    25
100
AcDbCircle
 10
303.5594844276
 20
-125.4297206017
 30
0.0
 40
21.70956205276192
100
AcDbArc
 50
120.2569744804
 51
142.5298914243
  0
LINE
  5
125
330
1F
100
AcDbEntity
  8
0
  6
Continuous
 62
     7
370
    25
100
AcDbLine
 10
308.6356259287
 20
-127.2325515278
 30
0.0
 11
351.0620327999
 21
-102.7403081732
 31
0.0
  0
LWPOLYLINE
  5
126
330
1F
100
AcDbEntity
  8
0
  6
Continuous
 62
     7
370
    25
100
AcDbPolyline
 90
       52
 70
   128
 43
0.0
 10
395.1688565399
 20
-177.1871222467
 10
394.7123869426
 20
-179.6700343206
 10
394.1252841467
 20
-182.0442364911
 10
393.4093396695
 20
-184.302483989
 10
392.5667381829
 20
-186.4378858755
 10
391.6000508465
 20
-188.4439260697
 10
390.5122274626
 20
-190.3144832317
 10
389.3065874744
 20
-192.0438494421
 10
387.9868098371
 20
-193.6267476191
 10
386.5569217917
 20
-195.0583476213
 10
385.021286576
 20
-196.3342809871
 10
383.3845901105
 20
-197.4506542641
 10
381.6518266997
 20
-198.4040608904
 10
379.8282837915
 20
-199.1915915895
 10
377.9195258437
 20
-199.8108432474
 10
375.9313773438
 20
-200.259926246
 10
373.8699050357
 20
-200.5374702293
 10
371.7413994079
 20
-200.6426282844
 10
369.5523554977
 20
-200.5750795263
 10
367.3094530723
 20
-200.335030077
 10
365.0195362458
 20
-199.9232124364
 10
362.6895925944
 20
-199.3408832471
 10
360.3267318346
 20
-198.58981946
 10
357.9381641275
 20
-197.6723129119
 10
355.5311780783
 20
-196.5911633319
 10
353.1131184945
 20
-195.3496697985
 10
350.6913639742
 20
-193.9516206722
 10
348.2733043904
 20
-192.401282036
 10
345.8663183411
 20
-190.7033846772
 10
343.4777506341
 20
-188.8631096518
 10
341.1148898742
 20
-186.8860724748
 10
338.7849462228
 20
-184.7783059845
 10
336.4950293963
 20
-182.5462419338
 10
334.2521269709
 20
-180.196691364
 10
332.0630830607
 20
-177.7368238209
 10
329.9345774329
 20
-175.1741454777
 10
327.8731051248
 20
-172.51647623
 10
325.8849566249
 20
-169.7719258336
 10
323.9761986771
 20
-166.9488691586
 10
322.152655769
 20
-164.0559206328
 10
320.4198923581
 20
-161.1019079564
 10
318.7831958927
 20
-158.0958451636
 10
317.247560677
 20
-155.0469051173
 10
315.8176726315
 20
-151.9643915184
 10
314.4978949942
 20
-148.8577105161
 10
313.292255006
 20
-145.7363420049
 10
312.2044316221
 20
-142.609810698
 10
311.2377442858
 20
-139.4876570625
 10
310.3951427991
 20
-136.379408207
 10
309.6791983219
 20
-133.2945488107
 10
309.092095526
 20
-130.2424921806
 10
308.6356259287
 20
-127.2325515278
  0
LINE
  5
127
330
1F
100
AcDbEntity
  8
0
  6
Continuous
 62
     7
370
    25
100
AcDbLine
 10
401.3926837822
 20
-173.5941832576
 30
0.0
 11
395.1688565399
 21
-177.1871222467
 31
0.0
  0
LWPOLYLINE
  5
128
330
1F
100
AcDbEntity
  8
0
  6
Continuous
 62
     7
370
    25
100
AcDbPolyline
 90
       41
 70
   128
 43
0.0
 10
351.0620327999
 20
-102.7403081732
 10
351.5185023972
 20
-105.750248826
 10
352.1056051931
 20
-108.802305456
 10
352.8215496703
 20
-111.8871648523
 10
353.664151157
 20
-114.9954137078
 10
354.6308384933
 20
-118.1175673433
 10
355.7186618772
 20
-121.2440986502
 10
356.9243018654
 20
-124.3654671614
 10
358.2440795027
 20
-127.4721481638
 10
359.6739675481
 20
-130.5546617626
 10
361.2096027638
 20
-133.6036018089
 10
362.8462992293
 20
-136.6096646017
 10
364.5790626402
 20
-139.5636772782
 10
366.4026055483
 20
-142.4566258039
 10
368.3113634961
 20
-145.279682479
 10
370.299511996
 20
-148.0242328753
 10
372.3609843041
 20
-150.681902123
 10
374.4894899319
 20
-153.2445804662
 10
376.6785338421
 20
-155.7044480093
 10
378.9214362675
 20
-158.0539985792
 10
381.211353094
 20
-160.2860626298
 10
383.5412967454
 20
-162.3938291201
 10
385.9041575053
 20
-164.3708662972
 10
388.2927252123
 20
-166.2111413225
 10
390.6997112616
 20
-167.9090386813
 10
393.1177708454
 20
-169.4593773175
 10
395.5395253656
 20
-170.8574264438
 10
397.9575849494
 20
-172.0989199772
 10
400.3645709987
 20
-173.1800695572
 10
402.7531387057
 20
-174.0975761054
 10
405.1159994656
 20
-174.8486398924
 10
407.445943117
 20
-175.4309690817
 10
409.7358599435
 20
-175.8427867223
 10
411.9787623689
 20
-176.0828361716
 10
414.1678062791
 20
-176.1503849297
 10
416.2963119069
 20
-176.0452268746
 10
418.357784215
 20
-175.7676828913
 10
420.3459327149
 20
-175.3185998927
 10
422.2546906627
 20
-174.6993482348
 10
424.0782335708
 20
-173.9118175357
 10
425.3261288172
 20
-173.2472148813
  0
SPLINE
  5
129
330
1F
100
AcDbEntity
  8
0
  6
Continuous
 62
     7
370
    25
100
AcDbSpline
210
0.0
220
0.0
230
1.0
 70
     8
 71
     3
 72
    22
 73
    18
 74
     0
 42
0.00000001
 43
0.00000001
 40
0.0
 40
0.0
 40
0.0
 40
0.0
 40
0.0544450704598163
 40
0.1090865562163047
 40
0.163552424875054
 40
0.24496268959513
 40
0.326407289119328
 40
0.4136809699973011
 40
0.5009496033117904
 40
0.5624328307384275
 40
0.6241247400416627
 40
0.685572854954695
 40
0.7431097538048428
 40
0.8008564657173222
 40
0.85838211580244
 40
0.9381157655385536
 40
1.0
 40
1.0
 40
1.0
 40
1.0
 10
391.2880889464005
 20
-102.5838520536103
 30
0.0
 10
391.9058903585731
 20
-102.1915053632225
 30
0.0
 10
393.1437219549013
 20
-101.4053965578557
 30
0.0
 10
394.7197283384776
 20
-99.94527346051827
 30
0.0
 10
396.2908298191767
 20
-98.04719976526644
 30
0.0
 10
397.6434003385468
 20
-95.60842348051403
 30
0.0
 10
398.6040721551195
 20
-92.58008859706563
 30
0.0
 10
398.927213879244
 20
-89.36208292031796
 30
0.0
 10
398.6117684894729
 20
-86.40729974914102
 30
0.0
 10
397.8480118053996
 20
-83.88085009435326
 30
0.0
 10
396.8401602483675
 20
-81.78471099663794
 30
0.0
 10
395.5306407997315
 20
-79.8939935465672
 30
0.0
 10
393.9429691149147
 20
-78.25078226883542
 30
0.0
 10
392.133040421491
 20
-76.85647834223606
 30
0.0
 10
389.8205140389845
 20
-75.56449523152384
 30
0.0
 10
387.188235494068
 20
-74.56630971054581
 30
0.0
 10
385.1054566452866
 20
-74.23971777050278
 30
0.0
 10
384.19532318764
 20
-74.09700350594953
 30
0.0
  0
SPLINE
  5
12A
330
1F
100
AcDbEntity
  8
0
  6
Continuous
 62
     7
370
    25
100
AcDbSpline
210
0.0
220
0.0
230
1.0
 70
     8
 71
     3
 72
     9
 73
     5
 74
     0
 42
0.00000001
 43
0.00000001
 40
0.0
 40
0.0
 40
0.0
 40
0.0
 40
0.3869833363380398
 40
1.0
 40
1.0
 40
1.0
 40
1.0
 10
388.1340669387546
 20
-103.9406086822196
 30
0.0
 10
388.5691798029914
 20
-103.8063487671712
 30
0.0
 10
389.693550863395
 20
-103.459408983358
 30
0.0
 10
390.6820949490993
 20
-102.9166018633374
 30
0.0
 10
391.2880889464005
 20
-102.5838520536103
 30
0.0
  0
LINE
  5
12B
330
1F
100
AcDbEntity
  8
0
  6
Continuous
 62
     7
370
    25
100
AcDbLine
 10
383.7477678673
 20
-79.1545671725
 30
0.0
 11
380.9188810063
 21
-80.7876487963
 31
0.0
  0
LWPOLYLINE
  5
12C
330
1F
100
AcDbEntity
  8
0
  6
Continuous
 62
     7
370
    25
100
AcDbPolyline
 90
       30
 70
   128
 43
0.0
 10
330.6952532109
 20
-120.2983508503
 10
332.2283230434
 20
-121.5479962929
 10
334.4343120337
 20
-123.478845799
 10
336.6031826054
 20
-125.5363034943
 10
338.7274918498
 20
-127.7133088055
 10
340.7999497793
 20
-130.0023909078
 10
342.8134443442
 20
-132.395694363
 10
344.7610658394
 20
-134.8850060766
 10
346.6361306164
 20
-137.4617834827
 10
348.4322040191
 20
-140.1171838597
 10
350.1431224661
 20
-142.8420946754
 10
351.7630146022
 20
-145.6271648591
 10
353.2863214469
 20
-148.4628368913
 10
354.7078154713
 20
-151.3393796021
 10
356.0226185372
 20
-154.2469215657
 10
357.2262186376
 20
-157.1754849765
 10
358.3144853806
 20
-160.1150198894
 10
359.2836841635
 20
-163.0554387086
 10
360.1304889887
 20
-165.9866508049
 10
360.851993878
 20
-168.8985971438
 10
361.4457228445
 20
-171.781284805
 10
361.9096383897
 20
-174.6248212753
 10
362.2421484956
 20
-177.4194483964
 10
362.4421120879
 20
-180.1555758523
 10
362.5088429521
 20
-182.82381408
 10
362.4421120879
 20
-185.4150064919
 10
362.2421484956
 20
-187.9202608983
 10
361.9096383897
 20
-190.3309800229
 10
361.4457228445
 20
-192.6388910058
 10
361.3438306936
 20
-193.0611464304
  0
LINE
  5
12D
330
1F
100
AcDbEntity
  8
0
  6
Continuous
 62
     7
370
    25
100
AcDbLine
 10
351.9456441214
 20
-108.0307613007
 30
0.0
 11
313.6595948824
 21
-130.1328270707
 31
0.0
  0
LWPOLYLINE
  5
12E
330
1F
100
AcDbEntity
  8
0
  6
Continuous
 62
     7
370
    25
100
AcDbPolyline
 90
        3
 70
   128
 43
0.0
 10
432.5712944574
 20
-149.7946033492
 10
432.0872222486
 20
-152.1076569975
 10
432.0545088123
 20
-152.2407408393
  0
LINE
  5
12F
330
1F
100
AcDbEntity
  8
0
  6
Continuous
 62
     7
370
    25
100
AcDbLine
 10
390.1448875863
 20
-174.2868467039
 30
0.0
 11
395.8211831157
 21
-171.0099910446
 31
0.0
  0
LINE
  5
130
330
1F
100
AcDbEntity
  8
0
  6
Continuous
 62
     7
370
    25
100
AcDbLine
 10
429.6777715659
 20
-151.4649985591
 30
0.0
 11
432.5712944574
 21
-149.7946033492
 31
0.0
  0
LWPOLYLINE
  5
131
330
1F
100
AcDbEntity
  8
0
  6
Continuous
 62
     7
370
    25
100
AcDbPolyline
 90
       48
 70
   128
 43
0.0
 10
313.6595948824
 20
-130.1328270707
 10
314.1436670912
 20
-133.0047785948
 10
314.7594157943
 20
-135.9152289888
 10
315.5046936746
 20
-138.8540285604
 10
316.3769017045
 20
-141.8109287548
 10
317.3729982093
 20
-144.775617894
 10
318.4895094749
 20
-147.7377571377
 10
319.7225418614
 20
-150.6870165377
 10
321.0677953817
 20
-153.6131110622
 10
322.5205786969
 20
-156.5058364627
 10
324.0758254765
 20
-159.35510486
 10
325.7281120665
 20
-162.1509799235
 10
327.4716764033
 20
-164.8837115227
 10
329.300438108
 20
-167.5437697289
 10
331.2080196904
 20
-170.1218780494
 10
333.18776879
 20
-172.6090457775
 10
335.2327813742
 20
-174.996599346
 10
337.3359258154
 20
-177.2762125751
 10
339.4898677615
 20
-179.4399357079
 10
341.6870957124
 20
-181.4802231345
 10
343.9199472159
 20
-183.3899597053
 10
346.1806355886
 20
-185.1624855447
 10
348.4612770711
 20
-186.7916192754
 10
350.7539183207
 20
-188.2716795753
 10
353.0505641479
 20
-189.5975049903
 10
355.3432053975
 20
-190.7644719337
 10
357.62384688
 20
-191.76851081
 10
359.8845352528
 20
-192.6061202076
 10
362.1173867562
 20
-193.2743791084
 10
364.3146147072
 20
-193.7709570753
 10
366.4685566532
 20
-194.0941223784
 10
368.5717010945
 20
-194.2427480348
 10
370.6167136787
 20
-194.216315738
 10
372.5964627782
 20
-194.0149176663
 10
374.5040443607
 20
-193.6392561605
 10
376.3328060653
 20
-193.0906412752
 10
378.0763704021
 20
-192.3709862097
 10
379.7286569921
 20
-191.4828006368
 10
381.2839037718
 20
-190.4291819497
 10
382.7366870869
 20
-189.2138044615
 10
384.0819406072
 20
-187.8409065909
 10
385.3149729937
 20
-186.3152760815
 10
386.4314842593
 20
-184.6422333059
 10
387.4275807642
 20
-182.8276127113
 10
388.299788794
 20
-180.877742473
 10
389.0450666744
 20
-178.7994224261
 10
389.6608153774
 20
-176.5999003522
 10
390.1448875863
 20
-174.2868467039
  0
LINE
  5
132
330
1F
100
AcDbEntity
  8
0
  6
Continuous
 62
     7
370
    25
100
AcDbLine
 10
368.6300568466
 20
-73.6934616129
 30
0.0
 11
269.6351074805
 21
-130.8420294405
 31
0.0
  0
LINE
  5
133
330
1F
100
AcDbEntity
  8
0
  6
Continuous
 62
     7
370
    25
100
AcDbLine
 10
368.6300568466
 20
-79.4092472961
 30
0.0
 11
269.6351074805
 21
-136.5578151237
 31
0.0
  0
LINE
  5
134
330
1F
100
AcDbEntity
  8
0
  6
Continuous
 62
     7
370
    25
100
AcDbLine
 10
269.6351074805
 20
-130.8420294405
 30
0.0
 11
269.6351074805
 21
-136.5578151237
 31
0.0
  0
LINE
  5
135
330
1F
100
AcDbEntity
  8
0
  6
Continuous
 62
     7
370
    25
100
AcDbLine
 10
269.6351074805
 20
-136.5578151237
 30
0.0
 11
280.2417091983
 21
-142.6808759624
 31
0.0
  0
LINE
  5
136
330
1F
100
AcDbEntity
  8
0
  6
Continuous
 62
     7
370
    25
100
AcDbLine
 10
368.6300568466
 20
-70.4272983654
 30
0.0
 11
269.6351074805
 21
-127.575866193
 31
0.0
  0
LINE
  5
137
330
1F
100
AcDbEntity
  8
0
  6
Continuous
 62
     7
370
    25
100
AcDbLine
 10
269.6351074805
 20
-127.575866193
 30
0.0
 11
272.4639943415
 21
-129.2089478167
 31
0.0
  0
LINE
  5
138
330
1F
100
AcDbEntity
  8
0
  6
Continuous
 62
     7
370
    25
100
AcDbLine
 10
368.6300568466
 20
-64.7115126822
 30
0.0
 11
269.6351074805
 21
-121.8600805098
 31
0.0
  0
LINE
  5
139
330
1F
100
AcDbEntity
  8
0
  6
Continuous
 62
     7
370
    25
100
AcDbLine
 10
269.6351074805
 20
-121.8600805098
 30
0.0
 11
269.6351074805
 21
-127.575866193
 31
0.0
  0
LINE
  5
13A
330
1F
100
AcDbEntity
  8
0
  6
Continuous
 62
     7
370
    25
100
AcDbLine
 10
313.6595948824
 20
-130.1328270707
 30
0.0
 11
308.6356259287
 21
-127.2325515278
 31
0.0
  0
LINE
  5
13B
330
1F
100
AcDbEntity
  8
0
  6
Continuous
 62
     7
370
    25
100
AcDbLine
 10
395.1688565399
 20
-177.1871222467
 30
0.0
 11
390.1448875863
 21
-174.2868467039
 31
0.0
  0
LWPOLYLINE
  5
13C
330
1F
100
AcDbEntity
  8
0
  6
Continuous
 62
     7
370
    25
100
AcDbPolyline
 90
       21
 70
   128
 43
0.0
 10
408.5418515411
 20
-44.4324212212
 10
408.5478312324
 20
-44.2654264223
 10
408.6908336238
 20
-43.6031431535
 10
409.0207139247
 20
-42.9634804286
 10
409.5284738605
 20
-42.3638865793
 10
410.2002630637
 20
-41.8207169628
 10
411.0177568761
 20
-41.3487878302
 10
411.9586561975
 20
-40.9609721781
 10
412.9972957472
 20
-40.6678486064
 10
414.1053441457
 20
-40.4774127623
 10
415.2525767214
 20
-40.3948592389
 10
416.40769996
 20
-40.4224398813
 10
417.5392051108
 20
-40.5594023614
 10
418.616227663
 20
-40.8020106997
 10
419.6093892489
 20
-41.1436471734
 10
420.4915990094
 20
-41.5749928298
 10
421.238792562
 20
-42.084281684
 10
421.8305884143
 20
-42.6576216637
 10
422.2508439183
 20
-43.2793735487
 10
422.4880955993
 20
-43.9325775684
 10
422.5418515411
 20
-44.4324212212
  0
LWPOLYLINE
  5
13D
330
1F
100
AcDbEntity
  8
0
  6
Continuous
 62
     7
370
    25
100
AcDbPolyline
 90
       32
 70
   128
 43
0.0
 10
350.8415810625
 20
-12.7895737847
 10
352.6346154895
 20
-11.8318091402
 10
354.550824033
 20
-10.9571367026
 10
356.5786823894
 20
-10.1708168546
 10
358.7059947799
 20
-9.4775786166
 10
360.9199672976
 20
-8.8815912047
 10
363.2072848511
 20
-8.3864389574
 10
365.5541912437
 20
-7.9950997786
 10
367.946571904
 20
-7.7099272281
 10
370.3700387734
 20
-7.5326363673
 10
372.8100168368
 20
-7.4642934441
 10
375.2518317792
 20
-7.5053094811
 10
377.6807982381
 20
-7.6554378029
 10
380.0823081235
 20
-7.9137755201
 10
382.4419184723
 20
-8.2787689594
 10
384.7454383103
 20
-8.7482230071
 10
386.979013998
 20
-9.3193143115
 10
389.1292125486
 20
-9.9886082623
 10
391.183102415
 20
-10.7520796467
 10
393.1283312617
 20
-11.6051368583
 10
394.9532002536
 20
-12.5426495103
 10
396.646734414
 20
-13.5589792916
 10
398.198748629
 20
-14.6480138752
 10
399.5999089026
 20
-15.8032036789
 10
400.8417884921
 20
-17.0176012553
 10
401.9169185874
 20
-18.2839030746
 10
402.8188332296
 20
-19.5944934486
 10
403.542108198
 20
-20.9414903326
 10
404.0823936318
 20
-22.3167927288
 10
404.4364401909
 20
-23.7121294068
 10
404.6021185975
 20
-25.1191086476
 10
404.6154446699
 20
-25.6480015459
  0
LWPOLYLINE
  5
13E
330
1F
100
AcDbEntity
  8
0
  6
Continuous
 62
     7
370
    25
100
AcDbPolyline
 90
       12
 70
   128
 43
0.0
 10
341.6154446699
 20
-25.6480015459
 10
341.6169254374
 20
-25.4716818109
 10
341.73531168
 20
-24.0631124572
 10
342.0424217347
 20
-22.6640748128
 10
342.5364086056
 20
-21.282982855
 10
343.2143013974
 20
-19.9281426332
 10
344.0720231831
 20
-18.6077023159
 10
345.104415523
 20
-17.3296031865
 10
346.3052694881
 20
-16.1015318837
 10
347.6673630014
 20
-14.9308741727
 10
349.1825042722
 20
-13.8246705267
 10
350.8415810625
 20
-12.7895737847
  0
ENDSEC
  0
SECTION
  2
OBJECTS
  0
DICTIONARY
  5
C
330
0
100
AcDbDictionary
281
     1
  3
ACAD_GROUP
350
D
  3
ACAD_LAYOUT
350
1A
  3
ACAD_MLINESTYLE
350
17
  3
ACAD_PLOTSETTINGS
350
19
  3
ACAD_PLOTSTYLENAME
350
E
  3
ACAD_SCALELIST
350
47
  3
DWGPROPS
350
13F
  0
DICTIONARY
  5
D
102
{ACAD_REACTORS
330
C
102
}
330
C
100
AcDbDictionary
281
     1
  0
DICTIONARY
  5
1A
102
{ACAD_REACTORS
330
C
102
}
330
C
100
AcDbDictionary
281
     1
  3
Layout1
350
1E
  3
Layout2
350
26
  3
Model
350
22
  0
DICTIONARY
  5
17
102
{ACAD_REACTORS
330
C
102
}
330
C
100
AcDbDictionary
281
     1
  3
Standard
350
18
  0
DICTIONARY
  5
19
102
{ACAD_REACTORS
330
C
102
}
330
C
100
AcDbDictionary
281
     1
  0
ACDBDICTIONARYWDFLT
  5
E
102
{ACAD_REACTORS
330
C
102
}
330
C
100
AcDbDictionary
281
     1
  3
Normal
350
F
100
AcDbDictionaryWithDefault
340
F
  0
DICTIONARY
  5
47
102
{ACAD_REACTORS
330
C
102
}
330
C
100
AcDbDictionary
281
     1
  3
A0
350
48
  3
A1
350
49
  3
A2
350
4A
  3
A3
350
4B
  3
A4
350
4C
  3
A5
350
4D
  3
A6
350
4E
  3
A7
350
4F
  3
A8
350
50
  3
A9
350
51
  3
B0
350
52
  3
B1
350
53
  3
B2
350
54
  3
B3
350
55
  3
B4
350
56
  3
B5
350
57
  3
B6
350
58
  3
B7
350
59
  3
B8
350
5A
  3
B9
350
5B
  3
C0
350
5C
  3
C1
350
5D
  3
C2
350
5E
  3
C3
350
5F
  3
C4
350
60
  3
C5
350
61
  3
C6
350
62
  3
C7
350
63
  3
C8
350
64
  3
C9
350
65
  3
D0
350
66
  3
D1
350
67
  3
D2
350
68
  0
XRECORD
  5
13F
102
{ACAD_REACTORS
330
C
102
}
330
C
100
AcDbXrecord
280
     1
  1
DWGPROPS COOKIE
  2

  3

  4

  6

  7

  8
b.kav
  9

300
=
301
=
302
=
303
=
304
=
305
=
306
=
307
=
308
=
309
=
 40
0.0
 41
2459741.489458576
 42
2459741.489458681
  1

 90
        0
  0
LAYOUT
  5
1E
102
{ACAD_REACTORS
330
1A
102
}
330
1A
100
AcDbPlotSettings
  1

  2
none_device
  4

  6

 40
0.0
 41
0.0
 42
0.0
 43
0.0
 44
0.0
 45
0.0
 46
0.0
 47
0.0
 48
0.0
 49
0.0
140
0.0
141
0.0
142
1.0
143
1.0
 70
   688
 72
     1
 73
     0
 74
     5
  7

 75
    16
147
1.0
148
0.0
149
0.0
100
AcDbLayout
  1
Layout1
 70
     1
 71
     1
 10
0.0
 20
0.0
 11
420.0
 21
297.0
 12
0.0
 22
0.0
 32
0.0
 14
1.0000000000E+20
 24
1.0000000000E+20
 34
1.0000000000E+20
 15
-1.0000000000E+20
 25
-1.0000000000E+20
 35
-1.0000000000E+20
146
0.0
 13
0.0
 23
0.0
 33
0.0
 16
1.0
 26
0.0
 36
0.0
 17
0.0
 27
1.0
 37
0.0
 76
     0
330
1B
  0
LAYOUT
  5
26
102
{ACAD_REACTORS
330
1A
102
}
330
1A
100
AcDbPlotSettings
  1

  2
none_device
  4

  6

 40
0.0
 41
0.0
 42
0.0
 43
0.0
 44
0.0
 45
0.0
 46
0.0
 47
0.0
 48
0.0
 49
0.0
140
0.0
141
0.0
142
1.0
143
1.0
 70
   688
 72
     1
 73
     0
 74
     5
  7

 75
    16
147
1.0
148
0.0
149
0.0
100
AcDbLayout
  1
Layout2
 70
     1
 71
     2
 10
0.0
 20
0.0
 11
0.0
 21
0.0
 12
0.0
 22
0.0
 32
0.0
 14
0.0
 24
0.0
 34
0.0
 15
0.0
 25
0.0
 35
0.0
146
0.0
 13
0.0
 23
0.0
 33
0.0
 16
1.0
 26
0.0
 36
0.0
 17
0.0
 27
1.0
 37
0.0
 76
     0
330
23
  0
LAYOUT
  5
22
102
{ACAD_REACTORS
330
1A
102
}
330
1A
100
AcDbPlotSettings
  1

  2
none_device
  4
Letter_(8.50_x_11.00_Inches)
  6

 40
6.35
 41
6.35
 42
6.35000508
 43
6.35000508
 44
215.9
 45
279.4
 46
0.0
 47
0.0
 48
0.0
 49
0.0
140
0.0
141
0.0
142
1.0
143
1.0
 70
  1712
 72
     1
 73
     0
 74
     0
  7

 75
     0
147
1.0
148
0.0
149
0.0
100
AcDbLayout
  1
Model
 70
     1
 71
     0
 10
0.0
 20
0.0
 11
279.4
 21
215.9
 12
0.0
 22
0.0
 32
0.0
 14
0.0
 24
0.0
 34
0.0
 15
279.4
 25
215.9
 35
0.0
146
0.0
 13
0.0
 23
0.0
 33
0.0
 16
1.0
 26
0.0
 36
0.0
 17
0.0
 27
1.0
 37
0.0
 76
     0
330
1F
331
29
  0
MLINESTYLE
  5
18
102
{ACAD_REACTORS
330
17
102
}
330
17
100
AcDbMlineStyle
  2
Standard
 70
     0
  3

 62
   256
 51
90.0
 52
90.0
 71
     2
 49
0.5
 62
   256
  6
BYLAYER
 49
-0.5
 62
   256
  6
BYLAYER
  0
ACDBPLACEHOLDER
  5
F
102
{ACAD_REACTORS
330
E
102
}
330
E
  0
SCALE
  5
48
102
{ACAD_REACTORS
330
47
102
}
330
47
100
AcDbScale
 70
     0
300
1:1
140
1.0
141
1.0
290
     1
  0
SCALE
  5
49
102
{ACAD_REACTORS
330
47
102
}
330
47
100
AcDbScale
 70
     0
300
1:2
140
1.0
141
2.0
290
     0
  0
SCALE
  5
4A
102
{ACAD_REACTORS
330
47
102
}
330
47
100
AcDbScale
 70
     0
300
1:4
140
1.0
141
4.0
290
     0
  0
SCALE
  5
4B
102
{ACAD_REACTORS
330
47
102
}
330
47
100
AcDbScale
 70
     0
300
1:5
140
1.0
141
5.0
290
     0
  0
SCALE
  5
4C
102
{ACAD_REACTORS
330
47
102
}
330
47
100
AcDbScale
 70
     0
300
1:8
140
1.0
141
8.0
290
     0
  0
SCALE
  5
4D
102
{ACAD_REACTORS
330
47
102
}
330
47
100
AcDbScale
 70
     0
300
1:10
140
1.0
141
10.0
290
     0
  0
SCALE
  5
4E
102
{ACAD_REACTORS
330
47
102
}
330
47
100
AcDbScale
 70
     0
300
1:16
140
1.0
141
16.0
290
     0
  0
SCALE
  5
4F
102
{ACAD_REACTORS
330
47
102
}
330
47
100
AcDbScale
 70
     0
300
1:20
140
1.0
141
20.0
290
     0
  0
SCALE
  5
50
102
{ACAD_REACTORS
330
47
102
}
330
47
100
AcDbScale
 70
     0
300
1:30
140
1.0
141
30.0
290
     0
  0
SCALE
  5
51
102
{ACAD_REACTORS
330
47
102
}
330
47
100
AcDbScale
 70
     0
300
1:40
140
1.0
141
40.0
290
     0
  0
SCALE
  5
52
102
{ACAD_REACTORS
330
47
102
}
330
47
100
AcDbScale
 70
     0
300
1:50
140
1.0
141
50.0
290
     0
  0
SCALE
  5
53
102
{ACAD_REACTORS
330
47
102
}
330
47
100
AcDbScale
 70
     0
300
1:100
140
1.0
141
100.0
290
     0
  0
SCALE
  5
54
102
{ACAD_REACTORS
330
47
102
}
330
47
100
AcDbScale
 70
     0
300
2:1
140
2.0
141
1.0
290
     0
  0
SCALE
  5
55
102
{ACAD_REACTORS
330
47
102
}
330
47
100
AcDbScale
 70
     0
300
4:1
140
4.0
141
1.0
290
     0
  0
SCALE
  5
56
102
{ACAD_REACTORS
330
47
102
}
330
47
100
AcDbScale
 70
     0
300
8:1
140
8.0
141
1.0
290
     0
  0
SCALE
  5
57
102
{ACAD_REACTORS
330
47
102
}
330
47
100
AcDbScale
 70
     0
300
10:1
140
10.0
141
1.0
290
     0
  0
SCALE
  5
58
102
{ACAD_REACTORS
330
47
102
}
330
47
100
AcDbScale
 70
     0
300
100:1
140
100.0
141
1.0
290
     0
  0
SCALE
  5
59
102
{ACAD_REACTORS
330
47
102
}
330
47
100
AcDbScale
 70
     0
300
1/128" = 1'-0"
140
0.0078125
141
12.0
290
     0
  0
SCALE
  5
5A
102
{ACAD_REACTORS
330
47
102
}
330
47
100
AcDbScale
 70
     0
300
1/64" = 1'-0"
140
0.015625
141
12.0
290
     0
  0
SCALE
  5
5B
102
{ACAD_REACTORS
330
47
102
}
330
47
100
AcDbScale
 70
     0
300
1/32" = 1'-0"
140
0.03125
141
12.0
290
     0
  0
SCALE
  5
5C
102
{ACAD_REACTORS
330
47
102
}
330
47
100
AcDbScale
 70
     0
300
1/16" = 1'-0"
140
0.0625
141
12.0
290
     0
  0
SCALE
  5
5D
102
{ACAD_REACTORS
330
47
102
}
330
47
100
AcDbScale
 70
     0
300
3/32" = 1'-0"
140
0.09375
141
12.0
290
     0
  0
SCALE
  5
5E
102
{ACAD_REACTORS
330
47
102
}
330
47
100
AcDbScale
 70
     0
300
1/8" = 1'-0"
140
0.125
141
12.0
290
     0
  0
SCALE
  5
5F
102
{ACAD_REACTORS
330
47
102
}
330
47
100
AcDbScale
 70
     0
300
3/16" = 1'-0"
140
0.1875
141
12.0
290
     0
  0
SCALE
  5
60
102
{ACAD_REACTORS
330
47
102
}
330
47
100
AcDbScale
 70
     0
300
1/4" = 1'-0"
140
0.25
141
12.0
290
     0
  0
SCALE
  5
61
102
{ACAD_REACTORS
330
47
102
}
330
47
100
AcDbScale
 70
     0
300
3/8" = 1'-0"
140
0.375
141
12.0
290
     0
  0
SCALE
  5
62
102
{ACAD_REACTORS
330
47
102
}
330
47
100
AcDbScale
 70
     0
300
1/2" = 1'-0"
140
0.5
141
12.0
290
     0
  0
SCALE
  5
63
102
{ACAD_REACTORS
330
47
102
}
330
47
100
AcDbScale
 70
     0
300
3/4" = 1'-0"
140
0.75
141
12.0
290
     0
  0
SCALE
  5
64
102
{ACAD_REACTORS
330
47
102
}
330
47
100
AcDbScale
 70
     0
300
1" = 1'-0"
140
1.0
141
12.0
290
     0
  0
SCALE
  5
65
102
{ACAD_REACTORS
330
47
102
}
330
47
100
AcDbScale
 70
     0
300
1-1/2" = 1'-0"
140
1.5
141
12.0
290
     0
  0
SCALE
  5
66
102
{ACAD_REACTORS
330
47
102
}
330
47
100
AcDbScale
 70
     0
300
3" = 1'-0"
140
3.0
141
12.0
290
     0
  0
SCALE
  5
67
102
{ACAD_REACTORS
330
47
102
}
330
47
100
AcDbScale
 70
     0
300
6" = 1'-0"
140
6.0
141
12.0
290
     0
  0
SCALE
  5
68
102
{ACAD_REACTORS
330
47
102
}
330
47
100
AcDbScale
 70
     0
300
1'-0" = 1'-0"
140
12.0
141
12.0
290
     0
  0
ENDSEC
  0
EOF
